  0
SECTION
  2
HEADER
  9
$ACADVER
  1
AC1015
  9
$ACADMAINTVER
 70
     6
  9
$DWGCODEPAGE
  3
ANSI_1251
  9
$INSBASE
 10
0.0
 20
0.0
 30
0.0
  9
$EXTMIN
 10
1.000000000000000E+20
 20
1.000000000000000E+20
 30
1.000000000000000E+20
  9
$EXTMAX
 10
-1.000000000000000E+20
 20
-1.000000000000000E+20
 30
-1.000000000000000E+20
  9
$LIMMIN
 10
-343.3014257716386
 20
-253.623850611657
  9
$LIMMAX
 10
13426.61763136231
 20
19340.43015515901
  9
$ORTHOMODE
 70
     0
  9
$REGENMODE
 70
     1
  9
$FILLMODE
 70
     1
  9
$QTEXTMODE
 70
     0
  9
$MIRRTEXT
 70
     0
  9
$LTSCALE
 40
1.0
  9
$ATTMODE
 70
     1
  9
$TEXTSIZE
 40
2.5
  9
$TRACEWID
 40
1.0
  9
$TEXTSTYLE
  7
Standard
  9
$CLAYER
  8
0
  9
$CELTYPE
  6
ByLayer
  9
$CECOLOR
 62
   256
  9
$CELTSCALE
 40
1.0
  9
$DISPSILH
 70
     0
  9
$DIMSCALE
 40
1.0
  9
$DIMASZ
 40
2.5
  9
$DIMEXO
 40
0.625
  9
$DIMDLI
 40
3.75
  9
$DIMRND
 40
0.0
  9
$DIMDLE
 40
0.0
  9
$DIMEXE
 40
1.25
  9
$DIMTP
 40
0.0
  9
$DIMTM
 40
0.0
  9
$DIMTXT
 40
2.5
  9
$DIMCEN
 40
2.5
  9
$DIMTSZ
 40
0.0
  9
$DIMTOL
 70
     0
  9
$DIMLIM
 70
     0
  9
$DIMTIH
 70
     0
  9
$DIMTOH
 70
     0
  9
$DIMSE1
 70
     0
  9
$DIMSE2
 70
     0
  9
$DIMTAD
 70
     1
  9
$DIMZIN
 70
     8
  9
$DIMBLK
  1

  9
$DIMASO
 70
     1
  9
$DIMSHO
 70
     1
  9
$DIMPOST
  1

  9
$DIMAPOST
  1

  9
$DIMALT
 70
     0
  9
$DIMALTD
 70
     3
  9
$DIMALTF
 40
0.03937007874016
  9
$DIMLFAC
 40
1.0
  9
$DIMTOFL
 70
     1
  9
$DIMTVP
 40
0.0
  9
$DIMTIX
 70
     0
  9
$DIMSOXD
 70
     0
  9
$DIMSAH
 70
     0
  9
$DIMBLK1
  1

  9
$DIMBLK2
  1

  9
$DIMSTYLE
  2
ISO-25
  9
$DIMCLRD
 70
     0
  9
$DIMCLRE
 70
     0
  9
$DIMCLRT
 70
     0
  9
$DIMTFAC
 40
1.0
  9
$DIMGAP
 40
0.625
  9
$DIMJUST
 70
     0
  9
$DIMSD1
 70
     0
  9
$DIMSD2
 70
     0
  9
$DIMTOLJ
 70
     0
  9
$DIMTZIN
 70
     8
  9
$DIMALTZ
 70
     0
  9
$DIMALTTZ
 70
     0
  9
$DIMUPT
 70
     0
  9
$DIMDEC
 70
     2
  9
$DIMTDEC
 70
     2
  9
$DIMALTU
 70
     2
  9
$DIMALTTD
 70
     3
  9
$DIMTXSTY
  7
Standard
  9
$DIMAUNIT
 70
     0
  9
$DIMADEC
 70
     0
  9
$DIMALTRND
 40
0.0
  9
$DIMAZIN
 70
     0
  9
$DIMDSEP
 70
    44
  9
$DIMATFIT
 70
     3
  9
$DIMFRAC
 70
     0
  9
$DIMLDRBLK
  1

  9
$DIMLUNIT
 70
     2
  9
$DIMLWD
 70
    -2
  9
$DIMLWE
 70
    -2
  9
$DIMTMOVE
 70
     0
  9
$LUNITS
 70
     2
  9
$LUPREC
 70
     3
  9
$SKETCHINC
 40
1.0
  9
$FILLETRAD
 40
10.0
  9
$AUNITS
 70
     0
  9
$AUPREC
 70
     0
  9
$MENU
  1
.
  9
$ELEVATION
 40
0.0
  9
$PELEVATION
 40
0.0
  9
$THICKNESS
 40
0.0
  9
$LIMCHECK
 70
     0
  9
$CHAMFERA
 40
10.0
  9
$CHAMFERB
 40
10.0
  9
$CHAMFERC
 40
20.0
  9
$CHAMFERD
 40
0.0
  9
$SKPOLY
 70
     0
  9
$TDCREATE
 40
2455022.637359514
  9
$TDUCREATE
 40
2455022.637359514
  9
$TDUPDATE
 40
2456247.447890694
  9
$TDUUPDATE
 40
2456247.447890694
  9
$TDINDWG
 40
0.0000000116
  9
$TDUSRTIMER
 40
2456247.44734228
  9
$USRTIMER
 70
     1
  9
$ANGBASE
 50
0.0
  9
$ANGDIR
 70
     0
  9
$PDMODE
 70
     0
  9
$PDSIZE
 40
0.0
  9
$PLINEWID
 40
0.0
  9
$SPLFRAME
 70
     0
  9
$SPLINETYPE
 70
     6
  9
$SPLINESEGS
 70
     8
  9
$HANDSEED
  5
1AE
  9
$SURFTAB1
 70
     6
  9
$SURFTAB2
 70
     6
  9
$SURFTYPE
 70
     6
  9
$SURFU
 70
     6
  9
$SURFV
 70
     6
  9
$UCSBASE
  2

  9
$UCSNAME
  2

  9
$UCSORG
 10
0.0
 20
0.0
 30
0.0
  9
$UCSXDIR
 10
1.0
 20
0.0
 30
0.0
  9
$UCSYDIR
 10
0.0
 20
1.0
 30
0.0
  9
$UCSORTHOREF
  2

  9
$UCSORTHOVIEW
 70
     0
  9
$UCSORGTOP
 10
0.0
 20
0.0
 30
0.0
  9
$UCSORGBOTTOM
 10
0.0
 20
0.0
 30
0.0
  9
$UCSORGLEFT
 10
0.0
 20
0.0
 30
0.0
  9
$UCSORGRIGHT
 10
0.0
 20
0.0
 30
0.0
  9
$UCSORGFRONT
 10
0.0
 20
0.0
 30
0.0
  9
$UCSORGBACK
 10
0.0
 20
0.0
 30
0.0
  9
$PUCSBASE
  2

  9
$PUCSNAME
  2

  9
$PUCSORG
 10
0.0
 20
0.0
 30
0.0
  9
$PUCSXDIR
 10
1.0
 20
0.0
 30
0.0
  9
$PUCSYDIR
 10
0.0
 20
1.0
 30
0.0
  9
$PUCSORTHOREF
  2

  9
$PUCSORTHOVIEW
 70
     0
  9
$PUCSORGTOP
 10
0.0
 20
0.0
 30
0.0
  9
$PUCSORGBOTTOM
 10
0.0
 20
0.0
 30
0.0
  9
$PUCSORGLEFT
 10
0.0
 20
0.0
 30
0.0
  9
$PUCSORGRIGHT
 10
0.0
 20
0.0
 30
0.0
  9
$PUCSORGFRONT
 10
0.0
 20
0.0
 30
0.0
  9
$PUCSORGBACK
 10
0.0
 20
0.0
 30
0.0
  9
$USERI1
 70
     0
  9
$USERI2
 70
     0
  9
$USERI3
 70
     0
  9
$USERI4
 70
     0
  9
$USERI5
 70
     0
  9
$USERR1
 40
0.0
  9
$USERR2
 40
0.0
  9
$USERR3
 40
0.0
  9
$USERR4
 40
0.0
  9
$USERR5
 40
0.0
  9
$WORLDVIEW
 70
     1
  9
$SHADEDGE
 70
     3
  9
$SHADEDIF
 70
    70
  9
$TILEMODE
 70
     1
  9
$MAXACTVP
 70
    64
  9
$PINSBASE
 10
0.0
 20
0.0
 30
0.0
  9
$PLIMCHECK
 70
     0
  9
$PEXTMIN
 10
1.000000000000000E+20
 20
1.000000000000000E+20
 30
1.000000000000000E+20
  9
$PEXTMAX
 10
-1.000000000000000E+20
 20
-1.000000000000000E+20
 30
-1.000000000000000E+20
  9
$PLIMMIN
 10
0.0
 20
0.0
  9
$PLIMMAX
 10
420.0
 20
297.0
  9
$UNITMODE
 70
     0
  9
$VISRETAIN
 70
     1
  9
$PLINEGEN
 70
     0
  9
$PSLTSCALE
 70
     1
  9
$TREEDEPTH
 70
  3020
  9
$CMLSTYLE
  2
Standard
  9
$CMLJUST
 70
     0
  9
$CMLSCALE
 40
20.0
  9
$PROXYGRAPHICS
 70
     1
  9
$MEASUREMENT
 70
     1
  9
$CELWEIGHT
370
    -1
  9
$ENDCAPS
280
     0
  9
$JOINSTYLE
280
     0
  9
$LWDISPLAY
290
     0
  9
$INSUNITS
 70
     4
  9
$HYPERLINKBASE
  1

  9
$STYLESHEET
  1

  9
$XEDIT
290
     1
  9
$CEPSNTYPE
380
     0
  9
$PSTYLEMODE
290
     1
  9
$FINGERPRINTGUID
  2
{EC6BB858-51AA-46EC-B484-6C9CC7AB3E2E}
  9
$VERSIONGUID
  2
{FAEB1C32-E019-11D5-929B-00C0DF256EC4}
  9
$EXTNAMES
290
     1
  9
$PSVPSCALE
 40
0.0
  9
$OLESTARTUP
290
     0
  0
ENDSEC
  0
SECTION
  2
CLASSES
  0
CLASS
  1
ACDBDICTIONARYWDFLT
  2
AcDbDictionaryWithDefault
  3
ObjectDBX Classes
 90
        0
280
     0
281
     0
  0
CLASS
  1
VISUALSTYLE
  2
AcDbVisualStyle
  3
ObjectDBX Classes
 90
     4095
280
     0
281
     0
  0
CLASS
  1
TABLESTYLE
  2
AcDbTableStyle
  3
ObjectDBX Classes
 90
     4095
280
     0
281
     0
  0
CLASS
  1
DICTIONARYVAR
  2
AcDbDictionaryVar
  3
ObjectDBX Classes
 90
        0
280
     0
281
     0
  0
CLASS
  1
SCALE
  2
AcDbScale
  3
ObjectDBX Classes
 90
     1153
280
     0
281
     0
  0
CLASS
  1
CELLSTYLEMAP
  2
AcDbCellStyleMap
  3
ObjectDBX Classes
 90
     1152
280
     0
281
     0
  0
CLASS
  1
RASTERVARIABLES
  2
AcDbRasterVariables
  3
ISM
 90
        0
280
     0
281
     0
  0
CLASS
  1
MATERIAL
  2
AcDbMaterial
  3
ObjectDBX Classes
 90
     1153
280
     0
281
     0
  0
CLASS
  1
ACDBPLACEHOLDER
  2
AcDbPlaceHolder
  3
ObjectDBX Classes
 90
        0
280
     0
281
     0
  0
CLASS
  1
LAYOUT
  2
AcDbLayout
  3
ObjectDBX Classes
 90
        0
280
     0
281
     0
  0
ENDSEC
  0
SECTION
  2
TABLES
  0
TABLE
  2
VPORT
  5
8
330
0
100
AcDbSymbolTable
 70
     1
  0
VPORT
  5
29
330
8
100
AcDbSymbolTableRecord
100
AcDbViewportTableRecord
  2
*Active
 70
     0
 10
0.0
 20
0.0
 11
1.0
 21
1.0
 12
12343.97635262428
 22
7931.365800418875
 13
0.0
 23
0.0
 14
10.0
 24
10.0
 15
10.0
 25
10.0
 16
0.0
 26
0.0
 36
1.0
 17
-134.1869158878508
 27
0.0
 37
0.0
 40
21382.89545428051
 41
2.077821011673152
 42
50.0
 43
0.0
 44
0.0
 50
0.0
 51
0.0
 71
    16
 72
  1000
 73
     1
 74
     3
 75
     0
 76
     0
 77
     0
 78
     0
281
     0
 65
     1
110
0.0
120
0.0
130
0.0
111
1.0
121
0.0
131
0.0
112
0.0
122
1.0
132
0.0
 79
     0
146
0.0
  0
ENDTAB
  0
TABLE
  2
LTYPE
  5
5
330
0
100
AcDbSymbolTable
 70
     1
  0
LTYPE
  5
14
330
5
100
AcDbSymbolTableRecord
100
AcDbLinetypeTableRecord
  2
ByBlock
 70
     0
  3

 72
    65
 73
     0
 40
0.0
  0
LTYPE
  5
15
330
5
100
AcDbSymbolTableRecord
100
AcDbLinetypeTableRecord
  2
ByLayer
 70
     0
  3

 72
    65
 73
     0
 40
0.0
  0
LTYPE
  5
16
330
5
100
AcDbSymbolTableRecord
100
AcDbLinetypeTableRecord
  2
Continuous
 70
     0
  3
Solid line
 72
    65
 73
     0
 40
0.0
  0
ENDTAB
  0
TABLE
  2
LAYER
  5
2
102
{ACAD_XDICTIONARY
360
1A6
102
}
330
0
100
AcDbSymbolTable
 70
     3
  0
LAYER
  5
10
330
2
100
AcDbSymbolTableRecord
100
AcDbLayerTableRecord
  2
0
 70
     0
 62
     7
  6
Continuous
370
    -3
390
F
  0
LAYER
  5
77
330
2
100
AcDbSymbolTableRecord
100
AcDbLayerTableRecord
  2
fluid
 70
     0
 62
     4
  6
Continuous
370
    -3
390
F
1001
AcAecLayerStandard
1000

1000

  0
LAYER
  5
95
330
2
100
AcDbSymbolTableRecord
100
AcDbLayerTableRecord
  2
insets
 70
     0
 62
    30
  6
Continuous
370
    -3
390
F
1001
AcAecLayerStandard
1000

1000

  0
ENDTAB
  0
TABLE
  2
STYLE
  5
3
330
0
100
AcDbSymbolTable
 70
     1
  0
STYLE
  5
11
330
3
100
AcDbSymbolTableRecord
100
AcDbTextStyleTableRecord
  2
Standard
 70
     0
 40
0.0
 41
1.0
 50
0.0
 71
     0
 42
2.5
  3
txt
  4

  0
ENDTAB
  0
TABLE
  2
VIEW
  5
6
330
0
100
AcDbSymbolTable
 70
     0
  0
ENDTAB
  0
TABLE
  2
UCS
  5
7
330
0
100
AcDbSymbolTable
 70
     0
  0
ENDTAB
  0
TABLE
  2
APPID
  5
9
330
0
100
AcDbSymbolTable
 70
     2
  0
APPID
  5
12
330
9
100
AcDbSymbolTableRecord
100
AcDbRegAppTableRecord
  2
ACAD
 70
     0
  0
APPID
  5
79
330
9
100
AcDbSymbolTableRecord
100
AcDbRegAppTableRecord
  2
AcAecLayerStandard
 70
     0
  0
ENDTAB
  0
TABLE
  2
DIMSTYLE
  5
A
330
0
100
AcDbSymbolTable
 70
     1
100
AcDbDimStyleTable
  0
DIMSTYLE
105
27
330
A
100
AcDbSymbolTableRecord
100
AcDbDimStyleTableRecord
  2
ISO-25
 70
     0
 41
2.5
 42
0.625
 43
3.75
 44
1.25
 73
     0
 74
     0
 77
     1
 78
     8
140
2.5
141
2.5
143
0.03937007874016
147
0.625
171
     3
172
     1
178
     0
271
     2
272
     2
274
     3
278
    44
283
     0
284
     8
340
11
  0
ENDTAB
  0
TABLE
  2
BLOCK_RECORD
  5
1
330
0
100
AcDbSymbolTable
 70
     1
  0
BLOCK_RECORD
  5
1F
330
1
100
AcDbSymbolTableRecord
100
AcDbBlockTableRecord
  2
*Model_Space
340
22
  0
BLOCK_RECORD
  5
1B
330
1
100
AcDbSymbolTableRecord
100
AcDbBlockTableRecord
  2
*Paper_Space
340
1E
  0
BLOCK_RECORD
  5
23
330
1
100
AcDbSymbolTableRecord
100
AcDbBlockTableRecord
  2
*Paper_Space0
340
26
  0
ENDTAB
  0
ENDSEC
  0
SECTION
  2
BLOCKS
  0
BLOCK
  5
20
330
1F
100
AcDbEntity
  8
0
100
AcDbBlockBegin
  2
*Model_Space
 70
     0
 10
0.0
 20
0.0
 30
0.0
  3
*Model_Space
  1

  0
ENDBLK
  5
21
330
1F
100
AcDbEntity
  8
0
100
AcDbBlockEnd
  0
BLOCK
  5
1C
330
1B
100
AcDbEntity
 67
     1
  8
0
100
AcDbBlockBegin
  2
*Paper_Space
 70
     0
 10
0.0
 20
0.0
 30
0.0
  3
*Paper_Space
  1

  0
ENDBLK
  5
1D
330
1B
100
AcDbEntity
 67
     1
  8
0
100
AcDbBlockEnd
  0
BLOCK
  5
24
330
23
100
AcDbEntity
  8
0
100
AcDbBlockBegin
  2
*Paper_Space0
 70
     0
 10
0.0
 20
0.0
 30
0.0
  3
*Paper_Space0
  1

  0
ENDBLK
  5
25
330
23
100
AcDbEntity
  8
0
100
AcDbBlockEnd
  0
ENDSEC
  0
SECTION
  2
ENTITIES
  0
LWPOLYLINE
  5
EA
330
1F
100
AcDbEntity
  8
fluid
 62
   250
100
AcDbPolyline
 90
        2
 70
     0
 43
0.0
 10
6329.761127535881
 20
11066.75077849133
 10
6909.657342192413
 20
11066.75077849133
  0
LWPOLYLINE
  5
EF
330
1F
100
AcDbEntity
  8
fluid
 62
   250
100
AcDbPolyline
 90
        2
 70
     0
 43
0.0
 10
6909.657342192413
 20
11216.75077849133
 10
6909.761127535881
 20
11276.90428597492
  0
LWPOLYLINE
  5
F0
330
1F
100
AcDbEntity
  8
fluid
 62
   250
100
AcDbPolyline
 90
        6
 70
     0
 43
0.0
 10
6909.761127535881
 20
11590.94575962809
 10
6909.761127535881
 20
11416.90428597492
 10
6944.761127535881
 20
11416.90428597492
 10
6944.761127535881
 20
11326.90428597492
 10
6909.761127535881
 20
11326.90428597492
 10
6909.761127535881
 20
11276.90428597492
  0
LWPOLYLINE
  5
F1
330
1F
100
AcDbEntity
  8
fluid
 62
   250
100
AcDbPolyline
 90
        5
 70
     0
 43
0.0
 10
6839.761127535881
 20
11326.90428597492
 10
6889.761127535881
 20
11326.90428597492
 10
6889.761127535881
 20
11276.90428597492
 10
6839.761127535881
 20
11276.90428597492
 10
6839.761127535881
 20
11326.90428597492
  0
LWPOLYLINE
  5
F2
330
1F
100
AcDbEntity
  8
fluid
 62
   250
100
AcDbPolyline
 90
        5
 70
     0
 43
0.0
 10
6769.761127535881
 20
11326.90428597492
 10
6819.761127535881
 20
11326.90428597492
 10
6819.761127535881
 20
11276.90428597492
 10
6769.761127535881
 20
11276.90428597492
 10
6769.761127535881
 20
11326.90428597492
  0
LWPOLYLINE
  5
F3
330
1F
100
AcDbEntity
  8
fluid
 62
   250
100
AcDbPolyline
 90
        5
 70
     0
 43
0.0
 10
6699.761127535881
 20
11326.90428597492
 10
6749.761127535881
 20
11326.90428597492
 10
6749.761127535881
 20
11276.90428597492
 10
6699.761127535881
 20
11276.90428597492
 10
6699.761127535881
 20
11326.90428597492
  0
LWPOLYLINE
  5
F4
330
1F
100
AcDbEntity
  8
fluid
 62
   250
100
AcDbPolyline
 90
        5
 70
     0
 43
0.0
 10
6839.761127535881
 20
11466.90428597492
 10
6889.761127535881
 20
11466.90428597492
 10
6889.761127535881
 20
11416.90428597492
 10
6839.761127535881
 20
11416.90428597492
 10
6839.761127535881
 20
11466.90428597492
  0
LWPOLYLINE
  5
F5
330
1F
100
AcDbEntity
  8
fluid
 62
   250
100
AcDbPolyline
 90
        5
 70
     0
 43
0.0
 10
6769.761127535881
 20
11466.90428597492
 10
6819.761127535881
 20
11466.90428597492
 10
6819.761127535881
 20
11416.90428597492
 10
6769.761127535881
 20
11416.90428597492
 10
6769.761127535881
 20
11466.90428597492
  0
LWPOLYLINE
  5
F6
330
1F
100
AcDbEntity
  8
fluid
 62
   250
100
AcDbPolyline
 90
        5
 70
     0
 43
0.0
 10
6699.761127535881
 20
11466.90428597492
 10
6749.761127535881
 20
11466.90428597492
 10
6749.761127535881
 20
11416.90428597492
 10
6699.761127535881
 20
11416.90428597492
 10
6699.761127535881
 20
11466.90428597492
  0
LWPOLYLINE
  5
F7
330
1F
100
AcDbEntity
  8
fluid
 62
   250
100
AcDbPolyline
 90
        5
 70
     0
 43
0.0
 10
6874.761127535881
 20
11396.90428597492
 10
6924.761127535881
 20
11396.90428597492
 10
6924.761127535881
 20
11346.90428597492
 10
6874.761127535881
 20
11346.90428597492
 10
6874.761127535881
 20
11396.90428597492
  0
LWPOLYLINE
  5
F8
330
1F
100
AcDbEntity
  8
fluid
 62
   250
100
AcDbPolyline
 90
        5
 70
     0
 43
0.0
 10
6804.761127535881
 20
11396.90428597492
 10
6854.761127535881
 20
11396.90428597492
 10
6854.761127535881
 20
11346.90428597492
 10
6804.761127535881
 20
11346.90428597492
 10
6804.761127535881
 20
11396.90428597492
  0
LWPOLYLINE
  5
F9
330
1F
100
AcDbEntity
  8
fluid
 62
   250
100
AcDbPolyline
 90
        5
 70
     0
 43
0.0
 10
6734.761127535881
 20
11396.90428597492
 10
6784.761127535881
 20
11396.90428597492
 10
6784.761127535881
 20
11346.90428597492
 10
6734.761127535881
 20
11346.90428597492
 10
6734.761127535881
 20
11396.90428597492
  0
LWPOLYLINE
  5
FA
330
1F
100
AcDbEntity
  8
fluid
 62
   250
100
AcDbPolyline
 90
        6
 70
     0
 43
0.0
 10
6329.761127535881
 20
11592.76473660232
 10
6329.761127535881
 20
11416.90428597492
 10
6294.761127535881
 20
11416.90428597492
 10
6294.761127535881
 20
11326.90428597492
 10
6329.761127535881
 20
11326.90428597492
 10
6329.761127535881
 20
11276.90428597492
  0
LWPOLYLINE
  5
FB
330
1F
100
AcDbEntity
  8
fluid
 62
   250
100
AcDbPolyline
 90
        5
 70
     0
 43
0.0
 10
6629.761127535881
 20
11326.90428597492
 10
6679.761127535881
 20
11326.90428597492
 10
6679.761127535881
 20
11276.90428597492
 10
6629.761127535881
 20
11276.90428597492
 10
6629.761127535881
 20
11326.90428597492
  0
LWPOLYLINE
  5
FC
330
1F
100
AcDbEntity
  8
fluid
 62
   250
100
AcDbPolyline
 90
        5
 70
     0
 43
0.0
 10
6559.761127535881
 20
11326.90428597492
 10
6609.761127535881
 20
11326.90428597492
 10
6609.761127535881
 20
11276.90428597492
 10
6559.761127535881
 20
11276.90428597492
 10
6559.761127535881
 20
11326.90428597492
  0
LWPOLYLINE
  5
FD
330
1F
100
AcDbEntity
  8
fluid
 62
   250
100
AcDbPolyline
 90
        5
 70
     0
 43
0.0
 10
6489.761127535881
 20
11326.90428597492
 10
6539.761127535881
 20
11326.90428597492
 10
6539.761127535881
 20
11276.90428597492
 10
6489.761127535881
 20
11276.90428597492
 10
6489.761127535881
 20
11326.90428597492
  0
LWPOLYLINE
  5
FE
330
1F
100
AcDbEntity
  8
fluid
 62
   250
100
AcDbPolyline
 90
        5
 70
     0
 43
0.0
 10
6419.761127535881
 20
11326.90428597492
 10
6469.761127535881
 20
11326.90428597492
 10
6469.761127535881
 20
11276.90428597492
 10
6419.761127535881
 20
11276.90428597492
 10
6419.761127535881
 20
11326.90428597492
  0
LWPOLYLINE
  5
FF
330
1F
100
AcDbEntity
  8
fluid
 62
   250
100
AcDbPolyline
 90
        5
 70
     0
 43
0.0
 10
6349.761127535881
 20
11326.90428597492
 10
6399.761127535881
 20
11326.90428597492
 10
6399.761127535881
 20
11276.90428597492
 10
6349.761127535881
 20
11276.90428597492
 10
6349.761127535881
 20
11326.90428597492
  0
LWPOLYLINE
  5
100
330
1F
100
AcDbEntity
  8
fluid
 62
   250
100
AcDbPolyline
 90
        5
 70
     0
 43
0.0
 10
6629.761127535881
 20
11466.90428597492
 10
6679.761127535881
 20
11466.90428597492
 10
6679.761127535881
 20
11416.90428597492
 10
6629.761127535881
 20
11416.90428597492
 10
6629.761127535881
 20
11466.90428597492
  0
LWPOLYLINE
  5
101
330
1F
100
AcDbEntity
  8
fluid
 62
   250
100
AcDbPolyline
 90
        5
 70
     0
 43
0.0
 10
6559.761127535881
 20
11466.90428597492
 10
6609.761127535881
 20
11466.90428597492
 10
6609.761127535881
 20
11416.90428597492
 10
6559.761127535881
 20
11416.90428597492
 10
6559.761127535881
 20
11466.90428597492
  0
LWPOLYLINE
  5
102
330
1F
100
AcDbEntity
  8
fluid
 62
   250
100
AcDbPolyline
 90
        5
 70
     0
 43
0.0
 10
6489.761127535881
 20
11466.90428597492
 10
6539.761127535881
 20
11466.90428597492
 10
6539.761127535881
 20
11416.90428597492
 10
6489.761127535881
 20
11416.90428597492
 10
6489.761127535881
 20
11466.90428597492
  0
LWPOLYLINE
  5
103
330
1F
100
AcDbEntity
  8
fluid
 62
   250
100
AcDbPolyline
 90
        5
 70
     0
 43
0.0
 10
6419.761127535881
 20
11466.90428597492
 10
6469.761127535881
 20
11466.90428597492
 10
6469.761127535881
 20
11416.90428597492
 10
6419.761127535881
 20
11416.90428597492
 10
6419.761127535881
 20
11466.90428597492
  0
LWPOLYLINE
  5
104
330
1F
100
AcDbEntity
  8
fluid
 62
   250
100
AcDbPolyline
 90
        5
 70
     0
 43
0.0
 10
6349.761127535881
 20
11466.90428597492
 10
6399.761127535881
 20
11466.90428597492
 10
6399.761127535881
 20
11416.90428597492
 10
6349.761127535881
 20
11416.90428597492
 10
6349.761127535881
 20
11466.90428597492
  0
LWPOLYLINE
  5
105
330
1F
100
AcDbEntity
  8
fluid
 62
   250
100
AcDbPolyline
 90
        5
 70
     0
 43
0.0
 10
6664.761127535881
 20
11396.90428597492
 10
6714.761127535881
 20
11396.90428597492
 10
6714.761127535881
 20
11346.90428597492
 10
6664.761127535881
 20
11346.90428597492
 10
6664.761127535881
 20
11396.90428597492
  0
LWPOLYLINE
  5
106
330
1F
100
AcDbEntity
  8
fluid
 62
   250
100
AcDbPolyline
 90
        5
 70
     0
 43
0.0
 10
6594.761127535881
 20
11396.90428597492
 10
6644.761127535881
 20
11396.90428597492
 10
6644.761127535881
 20
11346.90428597492
 10
6594.761127535881
 20
11346.90428597492
 10
6594.761127535881
 20
11396.90428597492
  0
LWPOLYLINE
  5
107
330
1F
100
AcDbEntity
  8
fluid
 62
   250
100
AcDbPolyline
 90
        5
 70
     0
 43
0.0
 10
6524.761127535881
 20
11396.90428597492
 10
6574.761127535881
 20
11396.90428597492
 10
6574.761127535881
 20
11346.90428597492
 10
6524.761127535881
 20
11346.90428597492
 10
6524.761127535881
 20
11396.90428597492
  0
LWPOLYLINE
  5
108
330
1F
100
AcDbEntity
  8
fluid
 62
   250
100
AcDbPolyline
 90
        5
 70
     0
 43
0.0
 10
6454.761127535881
 20
11396.90428597492
 10
6504.761127535881
 20
11396.90428597492
 10
6504.761127535881
 20
11346.90428597492
 10
6454.761127535881
 20
11346.90428597492
 10
6454.761127535881
 20
11396.90428597492
  0
LWPOLYLINE
  5
109
330
1F
100
AcDbEntity
  8
fluid
 62
   250
100
AcDbPolyline
 90
        5
 70
     0
 43
0.0
 10
6384.761127535881
 20
11396.90428597492
 10
6434.761127535881
 20
11396.90428597492
 10
6434.761127535881
 20
11346.90428597492
 10
6384.761127535881
 20
11346.90428597492
 10
6384.761127535881
 20
11396.90428597492
  0
LWPOLYLINE
  5
10A
330
1F
100
AcDbEntity
  8
fluid
 62
   250
100
AcDbPolyline
 90
        5
 70
     0
 43
0.0
 10
6314.761127535881
 20
11396.90428597492
 10
6364.761127535881
 20
11396.90428597492
 10
6364.761127535881
 20
11346.90428597492
 10
6314.761127535881
 20
11346.90428597492
 10
6314.761127535881
 20
11396.90428597492
  0
LWPOLYLINE
  5
10B
330
1F
100
AcDbEntity
  8
fluid
 62
   250
100
AcDbPolyline
 90
        2
 70
     0
 43
0.0
 10
6329.761127535881
 20
11216.75077849133
 10
6329.761127535881
 20
11276.90428597492
  0
LWPOLYLINE
  5
10C
330
1F
100
AcDbEntity
  8
insets
 62
   250
100
AcDbPolyline
 90
        2
 70
     0
 43
0.0
 10
6526.999982497351
 20
11855.65263766237
 10
6526.999982497351
 20
12041.60673207144
  0
LWPOLYLINE
  5
10E
330
1F
100
AcDbEntity
  8
insets
 62
   250
100
AcDbPolyline
 90
        2
 70
     0
 43
0.0
 10
6716.379739694925
 20
11855.65263766237
 10
6716.471086967433
 20
12064.5303424754
  0
LWPOLYLINE
  5
10F
330
1F
100
AcDbEntity
  8
insets
 62
   250
100
AcDbPolyline
 90
       14
 70
     0
 43
0.0
 10
6716.471086967433
 20
12064.5303424754
 10
6716.90474110532
 20
12173.35590696114
 10
6714.777798023702
 20
12201.73798994162
 10
6704.379583236458
 20
12228.23220913037
 10
6686.63402375921
 20
12250.48443688453
 10
6663.117890426585
 20
12266.51746511576
 10
6635.920694884075
 20
12274.90668890614
 10
6607.459027308201
 20
12274.90668890614
 10
6580.261831765691
 20
12266.51746511582
 10
6556.745698433066
 20
12250.48443688453
 10
6539.000138955818
 20
12228.23220913037
 10
6528.601924168574
 20
12201.73798994162
 10
6526.474981086956
 20
12173.35590696114
 10
6526.999982497351
 20
12041.60673207144
  0
LWPOLYLINE
  5
110
330
1F
100
AcDbEntity
  8
insets
 62
   250
100
AcDbPolyline
 90
       20
 70
     0
 43
0.0
 10
6526.999982497351
 20
11855.65263766237
 10
6396.998126652719
 20
11664.97493589338
 10
6309.840372827997
 20
11745.84551315394
 10
6250.391814564982
 20
11848.81343650219
 10
6223.934717151033
 20
11964.72955408134
 10
6232.819909796048
 20
12083.29421015504
 10
6276.257904141838
 20
12193.9724147186
 10
6350.389043766236
 20
12286.92992359331
 10
6448.626451594451
 20
12353.90705417837
 10
6562.241302833123
 20
12388.95259449696
 10
6681.138419359153
 20
12388.95259449696
 10
6794.753270597825
 20
12353.90705417837
 10
6892.99067842604
 20
12286.92992359331
 10
6967.121818050438
 20
12193.9724147186
 10
7010.559812395995
 20
12083.29421015504
 10
7019.445005041243
 20
11964.72955408134
 10
6992.987907627294
 20
11848.81343650219
 10
6933.539349364279
 20
11745.84551315394
 10
6846.381595539557
 20
11664.97493589338
 10
6716.379739694925
 20
11855.65263766237
  0
LWPOLYLINE
  5
111
330
1F
100
AcDbEntity
  8
fluid
 62
   250
100
AcDbPolyline
 90
       18
 70
     0
 43
0.0
 10
6909.761127535881
 20
11590.94575962809
 10
7012.605602330224
 20
11682.79228045501
 10
7087.126735418266
 20
11811.86666920124
 10
7120.291759686706
 20
11957.17213459116
 10
7109.153817186992
 20
12105.79764836253
 10
7054.702562988432
 20
12244.53718138434
 10
6961.776229981495
 20
12361.06311729929
 10
6838.631730654904
 20
12445.02161533555
 10
6696.210994184179
 20
12488.95259449696
 10
6547.168728008097
 20
12488.95259449696
 10
6404.747991537371
 20
12445.02161533555
 10
6281.603492210781
 20
12361.06311729929
 10
6188.677159203844
 20
12244.53718138434
 10
6134.225905005051
 20
12105.79764836253
 10
6123.08796250557
 20
11957.17213459116
 10
6156.25298677401
 20
11811.86666920124
 10
6230.774119862052
 20
11682.79228045501
 10
6329.761127535881
 20
11592.76473660232
  0
LWPOLYLINE
  5
112
330
1F
100
AcDbEntity
  8
fluid
 62
   250
100
AcDbPolyline
 90
        4
 70
     0
 43
0.0
 10
6329.761127535881
 20
11066.75077849133
 10
5433.314518129149
 20
11066.75077849133
 10
5229.761127535881
 20
11066.75077849133
 10
5229.761127535881
 20
10863.19738789806
  0
LWPOLYLINE
  5
113
330
1F
100
AcDbEntity
  8
fluid
 62
   250
100
AcDbPolyline
 90
        5
 70
     0
 43
0.0
 10
6329.761127535881
 20
11216.75077849133
 10
5433.314518129149
 20
11216.75077849133
 10
5226.207736942613
 20
11216.75077849133
 10
5079.761127535881
 20
11070.30416908459
 10
5079.761127535881
 20
10863.19738789806
  0
LWPOLYLINE
  5
114
330
1F
100
AcDbEntity
  8
fluid
 62
   250
100
AcDbPolyline
 90
        4
 70
     0
 43
0.0
 10
6909.657342192413
 20
11066.75077849133
 10
7806.103951599378
 20
11066.75077849133
 10
8009.657342192646
 20
11066.75077849133
 10
8009.657342192646
 20
10863.19738789806
  0
LWPOLYLINE
  5
115
330
1F
100
AcDbEntity
  8
fluid
 62
   250
100
AcDbPolyline
 90
        5
 70
     0
 43
0.0
 10
6909.657342192413
 20
11216.75077849133
 10
7806.103951599378
 20
11216.75077849133
 10
8013.210732785914
 20
11216.75077849133
 10
8159.657342192646
 20
11070.30416908459
 10
8159.657342192646
 20
10863.19738789806
  0
LWPOLYLINE
  5
116
330
1F
100
AcDbEntity
  8
fluid
 62
   250
100
AcDbPolyline
 90
        2
 70
     0
 43
0.0
 10
6644.761127535881
 20
7985.995571892425
 10
6644.761127535881
 20
7885.995571892425
  0
LWPOLYLINE
  5
117
330
1F
100
AcDbEntity
  8
fluid
 62
   250
100
AcDbPolyline
 90
        2
 70
     0
 43
0.0
 10
6594.761127535881
 20
7985.995571892425
 10
6594.761127535881
 20
7885.995571892425
  0
LWPOLYLINE
  5
118
330
1F
100
AcDbEntity
  8
fluid
 62
   250
100
AcDbPolyline
 90
        2
 70
     0
 43
0.0
 10
6569.761127535881
 20
7660.995571892425
 10
6569.761127535881
 20
7160.995571892425
  0
LWPOLYLINE
  5
119
330
1F
100
AcDbEntity
  8
fluid
 62
   250
100
AcDbPolyline
 90
        2
 70
     0
 43
0.0
 10
6669.761127535881
 20
7660.995571892425
 10
6669.761127535881
 20
7160.995571892425
  0
LWPOLYLINE
  5
11A
330
1F
100
AcDbEntity
  8
fluid
 62
   250
100
AcDbPolyline
 90
        2
 70
     0
 43
0.0
 10
6594.761127535881
 20
7685.995571892425
 10
6569.761127535881
 20
7660.995571892425
  0
LWPOLYLINE
  5
11B
330
1F
100
AcDbEntity
  8
fluid
 62
   250
100
AcDbPolyline
 90
        2
 70
     0
 43
0.0
 10
6669.761127535881
 20
7660.995571892425
 10
6644.761127535881
 20
7685.995571892425
  0
LWPOLYLINE
  5
11C
330
1F
100
AcDbEntity
  8
fluid
 62
   250
100
AcDbPolyline
 90
        2
 70
     0
 43
0.0
 10
6594.761127535881
 20
7835.995571892425
 10
6594.761127535881
 20
7685.995571892425
  0
LWPOLYLINE
  5
11D
330
1F
100
AcDbEntity
  8
fluid
 62
   250
100
AcDbPolyline
 90
        2
 70
     0
 43
0.0
 10
6644.761127535881
 20
7835.995571892425
 10
6644.761127535881
 20
7685.995571892425
  0
LWPOLYLINE
  5
11E
330
1F
100
AcDbEntity
  8
fluid
 62
   250
100
AcDbPolyline
 90
        2
 70
     0
 43
0.0
 10
6369.761127535881
 20
4635.995571892425
 10
6569.761127535881
 20
7160.995571892425
  0
LWPOLYLINE
  5
11F
330
1F
100
AcDbEntity
  8
fluid
 62
   250
100
AcDbPolyline
 90
        2
 70
     0
 43
0.0
 10
6869.761127535881
 20
4635.995571892425
 10
6669.761127535881
 20
7160.995571892425
  0
LWPOLYLINE
  5
120
330
1F
100
AcDbEntity
  8
fluid
 62
   250
100
AcDbPolyline
 90
        2
 70
     0
 43
0.0
 10
6900.319142539682
 20
4571.328556157307
 10
6869.761127535881
 20
4635.995571892425
  0
LWPOLYLINE
  5
121
330
1F
100
AcDbEntity
  8
fluid
 62
   250
100
AcDbPolyline
 90
        2
 70
     0
 43
0.0
 10
6336.999084476078
 20
4571.328556157307
 10
6369.761127535881
 20
4635.995571892425
  0
LWPOLYLINE
  5
122
330
1F
100
AcDbEntity
  8
insets
 62
   250
100
AcDbPolyline
 90
        2
 70
     0
 43
0.0
 10
6713.348992106667
 20
4297.093712721377
 10
6713.348992106667
 20
4111.139618312249
  0
LWPOLYLINE
  5
123
330
1F
100
AcDbEntity
  8
insets
 62
   250
100
AcDbPolyline
 90
        2
 70
     0
 43
0.0
 10
6523.969234909093
 20
4297.093712721377
 10
6523.877887636585
 20
4088.21600790829
  0
LWPOLYLINE
  5
124
330
1F
100
AcDbEntity
  8
insets
 62
   250
100
AcDbPolyline
 90
       14
 70
     0
 43
0.0
 10
6523.877887636585
 20
4088.21600790829
 10
6523.444233498698
 20
3979.390443422548
 10
6525.571176580315
 20
3951.008360442072
 10
6535.96939136756
 20
3924.514141253319
 10
6553.714950844807
 20
3902.261913499162
 10
6577.231084177432
 20
3886.228885267927
 10
6604.428279719943
 20
3877.839661477665
 10
6632.889947295816
 20
3877.839661477665
 10
6660.087142838327
 20
3886.228885267927
 10
6683.603276170952
 20
3902.261913499162
 10
6701.348835648199
 20
3924.514141253319
 10
6711.747050435444
 20
3951.008360442072
 10
6713.873993517062
 20
3979.390443422548
 10
6713.348992106667
 20
4111.139618312249
  0
LWPOLYLINE
  5
125
330
1F
100
AcDbEntity
  8
insets
 62
   250
100
AcDbPolyline
 90
       20
 70
     0
 43
0.0
 10
6713.348992106667
 20
4297.093712721377
 10
6843.350847951298
 20
4487.771414490308
 10
6930.50860177602
 20
4406.900837229747
 10
6989.957160039035
 20
4303.932913881501
 10
7016.414257452985
 20
4188.016796302349
 10
7007.52906480797
 20
4069.452140228655
 10
6964.09107046218
 20
3958.773935665093
 10
6889.959930837782
 20
3865.816426790385
 10
6791.722523009566
 20
3798.839296205326
 10
6678.107671770895
 20
3763.793755886734
 10
6559.210555244865
 20
3763.793755886734
 10
6445.595704006193
 20
3798.839296205326
 10
6347.358296177978
 20
3865.816426790385
 10
6273.227156553579
 20
3958.773935665093
 10
6229.78916220779
 20
4069.452140228655
 10
6220.903969562774
 20
4188.016796302349
 10
6247.361066976724
 20
4303.932913881501
 10
6306.809625239739
 20
4406.900837229747
 10
6393.967379064461
 20
4487.771414490308
 10
6523.969234909093
 20
4297.093712721377
  0
LWPOLYLINE
  5
126
330
1F
100
AcDbEntity
  8
fluid
 62
   250
100
AcDbPolyline
 90
       18
 70
     0
 43
0.0
 10
6336.999084476078
 20
4571.328556157307
 10
6227.743372273793
 20
4469.954069928681
 10
6153.222239185752
 20
4340.879681182509
 10
6120.057214917311
 20
4195.574215792534
 10
6131.195157416792
 20
4046.94870202116
 10
6185.646411615586
 20
3908.209168999347
 10
6278.572744622523
 20
3791.683233084397
 10
6401.717243949113
 20
3707.724735048141
 10
6544.137980419839
 20
3663.793755886734
 10
6693.180246595921
 20
3663.793755886734
 10
6835.600983066646
 20
3707.724735048141
 10
6958.745482393237
 20
3791.683233084397
 10
7051.671815400174
 20
3908.209168999347
 10
7106.123069598734
 20
4046.94870202116
 10
7117.261012098448
 20
4195.574215792534
 10
7084.095987830007
 20
4340.879681182509
 10
7009.574854741966
 20
4469.954069928681
 10
6900.319142539682
 20
4571.328556157307
  0
CIRCLE
  5
127
330
1F
100
AcDbEntity
  8
fluid
 62
   250
100
AcDbCircle
 10
6514.761127535881
 20
9090.510607303826
 30
0.0
 40
8.0
  0
CIRCLE
  5
128
330
1F
100
AcDbEntity
  8
fluid
 62
   250
100
AcDbCircle
 10
6584.761127535881
 20
9090.510607303826
 30
0.0
 40
8.0
  0
CIRCLE
  5
129
330
1F
100
AcDbEntity
  8
fluid
 62
   250
100
AcDbCircle
 10
6654.761127535881
 20
9090.510607303826
 30
0.0
 40
8.0
  0
CIRCLE
  5
12A
330
1F
100
AcDbEntity
  8
fluid
 62
   250
100
AcDbCircle
 10
6724.761127535881
 20
9090.510607303826
 30
0.0
 40
8.0
  0
CIRCLE
  5
12B
330
1F
100
AcDbEntity
  8
fluid
 62
   250
100
AcDbCircle
 10
6759.761127535881
 20
9150.510607303826
 30
0.0
 40
8.0
  0
CIRCLE
  5
12C
330
1F
100
AcDbEntity
  8
fluid
 62
   250
100
AcDbCircle
 10
6689.761127535881
 20
9150.510607303826
 30
0.0
 40
8.0
  0
CIRCLE
  5
12D
330
1F
100
AcDbEntity
  8
fluid
 62
   250
100
AcDbCircle
 10
6619.761127535881
 20
9150.510607303826
 30
0.0
 40
8.0
  0
CIRCLE
  5
12E
330
1F
100
AcDbEntity
  8
fluid
 62
   250
100
AcDbCircle
 10
6549.761127535881
 20
9150.510607303826
 30
0.0
 40
8.0
  0
CIRCLE
  5
12F
330
1F
100
AcDbEntity
  8
fluid
 62
   250
100
AcDbCircle
 10
6479.761127535881
 20
9150.510607303826
 30
0.0
 40
8.0
  0
CIRCLE
  5
130
330
1F
100
AcDbEntity
  8
fluid
 62
   250
100
AcDbCircle
 10
6724.761127535881
 20
9210.510607303826
 30
0.0
 40
8.0
  0
CIRCLE
  5
131
330
1F
100
AcDbEntity
  8
fluid
 62
   250
100
AcDbCircle
 10
6794.761127535881
 20
9210.510607303826
 30
0.0
 40
8.0
  0
CIRCLE
  5
132
330
1F
100
AcDbEntity
  8
fluid
 62
   250
100
AcDbCircle
 10
6829.761127535881
 20
9270.510607303826
 30
0.0
 40
8.0
  0
CIRCLE
  5
133
330
1F
100
AcDbEntity
  8
fluid
 62
   250
100
AcDbCircle
 10
6759.761127535881
 20
9270.510607303826
 30
0.0
 40
8.0
  0
CIRCLE
  5
134
330
1F
100
AcDbEntity
  8
fluid
 62
   250
100
AcDbCircle
 10
6689.761127535881
 20
9270.510607303826
 30
0.0
 40
8.0
  0
CIRCLE
  5
135
330
1F
100
AcDbEntity
  8
fluid
 62
   250
100
AcDbCircle
 10
6654.761127535881
 20
9210.510607303826
 30
0.0
 40
8.0
  0
CIRCLE
  5
136
330
1F
100
AcDbEntity
  8
fluid
 62
   250
100
AcDbCircle
 10
6584.761127535881
 20
9210.510607303826
 30
0.0
 40
8.0
  0
CIRCLE
  5
137
330
1F
100
AcDbEntity
  8
fluid
 62
   250
100
AcDbCircle
 10
6514.761127535881
 20
9210.510607303826
 30
0.0
 40
8.0
  0
CIRCLE
  5
138
330
1F
100
AcDbEntity
  8
fluid
 62
   250
100
AcDbCircle
 10
6444.761127535881
 20
9210.510607303826
 30
0.0
 40
8.0
  0
CIRCLE
  5
139
330
1F
100
AcDbEntity
  8
fluid
 62
   250
100
AcDbCircle
 10
6619.761127535881
 20
9270.510607303826
 30
0.0
 40
8.0
  0
CIRCLE
  5
13A
330
1F
100
AcDbEntity
  8
fluid
 62
   250
100
AcDbCircle
 10
6549.761127535881
 20
9270.510607303826
 30
0.0
 40
8.0
  0
CIRCLE
  5
13B
330
1F
100
AcDbEntity
  8
fluid
 62
   250
100
AcDbCircle
 10
6479.761127535881
 20
9270.510607303826
 30
0.0
 40
8.0
  0
CIRCLE
  5
13C
330
1F
100
AcDbEntity
  8
fluid
 62
   250
100
AcDbCircle
 10
6409.761127535881
 20
9270.510607303826
 30
0.0
 40
8.0
  0
LWPOLYLINE
  5
13D
330
1F
100
AcDbEntity
  8
fluid
 62
   250
100
AcDbPolyline
 90
        4
 70
     0
 43
0.0
 10
6902.523170595685
 20
9300.662587627485
 10
6874.761127535881
 20
9275.510607303826
 10
6839.761127535881
 20
9205.510607303826
 10
6751.421932153566
 20
9067.29103956739
  0
LWPOLYLINE
  5
13E
330
1F
100
AcDbEntity
  8
fluid
 62
   250
100
AcDbPolyline
 90
        4
 70
     0
 43
0.0
 10
6339.203112532081
 20
9300.662587627485
 10
6364.761127535881
 20
9275.510607303826
 10
6399.761127535881
 20
9205.510607303826
 10
6488.21887976413
 20
9067.29103956739
  0
LWPOLYLINE
  5
13F
330
1F
100
AcDbEntity
  8
fluid
 62
   250
100
AcDbPolyline
 90
        2
 70
     0
 43
0.0
 10
6644.761127535881
 20
8035.995571892425
 10
6644.761127535881
 20
8125.995571892425
  0
LWPOLYLINE
  5
140
330
1F
100
AcDbEntity
  8
fluid
 62
   250
100
AcDbPolyline
 90
        2
 70
     0
 43
0.0
 10
6594.761127535881
 20
8035.995571892425
 10
6594.761127535881
 20
8125.995571892425
  0
LWPOLYLINE
  5
141
330
1F
100
AcDbEntity
  8
insets
 62
   250
100
AcDbPolyline
 90
        2
 70
     0
 43
0.0
 10
6526.173262965096
 20
9574.897431063415
 10
6526.173262965096
 20
9760.851525472543
  0
LWPOLYLINE
  5
142
330
1F
100
AcDbEntity
  8
insets
 62
   250
100
AcDbPolyline
 90
        2
 70
     0
 43
0.0
 10
6715.55302016267
 20
9574.897431063415
 10
6715.64436743541
 20
9783.775135876502
  0
LWPOLYLINE
  5
143
330
1F
100
AcDbEntity
  8
insets
 62
   250
100
AcDbPolyline
 90
       14
 70
     0
 43
0.0
 10
6715.64436743541
 20
9783.775135876502
 10
6716.078021573065
 20
9892.600700362244
 10
6713.951078491447
 20
9920.982783342719
 10
6703.552863704203
 20
9947.477002531472
 10
6685.807304226955
 20
9969.72923028563
 10
6662.29117089433
 20
9985.762258516865
 10
6635.09397535182
 20
9994.151482307185
 10
6606.632307776179
 20
9994.151482307185
 10
6579.435112233668
 20
9985.762258516923
 10
6555.918978900811
 20
9969.72923028563
 10
6538.173419423563
 20
9947.477002531472
 10
6527.775204636318
 20
9920.982783342719
 10
6525.648261554934
 20
9892.600700362244
 10
6526.173262965096
 20
9760.851525472543
  0
LWPOLYLINE
  5
144
330
1F
100
AcDbEntity
  8
insets
 62
   250
100
AcDbPolyline
 90
       20
 70
     0
 43
0.0
 10
6526.173262965096
 20
9574.897431063415
 10
6396.171407120464
 20
9384.219729294484
 10
6309.013653295742
 20
9465.090306555045
 10
6249.565095032727
 20
9568.05822990329
 10
6223.107997618778
 20
9683.9743474825
 10
6231.993190264026
 20
9802.539003556136
 10
6275.431184609582
 20
9913.217208119699
 10
6349.562324233981
 20
10006.17471699441
 10
6447.799732062196
 20
10073.15184757947
 10
6561.414583300868
 20
10108.19738789806
 10
6680.311699826898
 20
10108.19738789806
 10
6793.92655106557
 20
10073.15184757947
 10
6892.163958893785
 20
10006.17471699441
 10
6966.295098518183
 20
9913.217208119699
 10
7009.733092863973
 20
9802.539003556136
 10
7018.618285508988
 20
9683.9743474825
 10
6992.161188095039
 20
9568.05822990329
 10
6932.712629832024
 20
9465.090306555045
 10
6845.554876007534
 20
9384.219729294484
 10
6715.55302016267
 20
9574.897431063415
  0
LWPOLYLINE
  5
145
330
1F
100
AcDbEntity
  8
fluid
 62
   250
100
AcDbPolyline
 90
       18
 70
     0
 43
0.0
 10
6902.523170595685
 20
9300.662587627485
 10
7011.778882797969
 20
9402.03707385611
 10
7086.30001588601
 20
9531.111462602283
 10
7119.465040154451
 20
9676.416927992257
 10
7108.32709765497
 20
9825.042441763631
 10
7053.875843456177
 20
9963.781974785445
 10
6960.949510449473
 20
10080.30791070039
 10
6837.805011122649
 20
10164.26640873665
 10
6695.384274651924
 20
10208.19738789806
 10
6546.342008475842
 20
10208.19738789806
 10
6403.921272005116
 20
10164.26640873665
 10
6280.776772678526
 20
10080.30791070039
 10
6187.850439671589
 20
9963.781974785445
 10
6133.399185473028
 20
9825.042441763631
 10
6122.261242973314
 20
9676.416927992257
 10
6155.426267241755
 20
9531.111462602283
 10
6229.947400329796
 20
9402.03707385611
 10
6339.203112532081
 20
9300.662587627485
  0
LWPOLYLINE
  5
146
330
1F
100
AcDbEntity
  8
fluid
 62
   250
100
AcDbPolyline
 90
        2
 70
     0
 43
0.0
 10
6594.761127535881
 20
8125.995571892425
 10
6488.21887976413
 20
9067.29103956739
  0
LWPOLYLINE
  5
147
330
1F
100
AcDbEntity
  8
fluid
 62
   250
100
AcDbPolyline
 90
        2
 70
     0
 43
0.0
 10
6644.761127535881
 20
8125.995571892425
 10
6751.421932153566
 20
9067.29103956739
  0
LWPOLYLINE
  5
148
330
1F
100
AcDbEntity
  8
fluid
 62
   250
100
AcDbPolyline
 90
        5
 70
     1
 43
0.0
 10
6696.210994184179
 20
17574.70780109586
 10
922.559311530249
 20
17574.70780109586
 10
922.559311530249
 20
1178.793755886734
 10
12316.96294354151
 20
1178.793755886734
 10
12316.96294354151
 20
17574.70780109586
  0
LWPOLYLINE
  5
149
330
1F
100
AcDbEntity
  8
fluid
 62
   250
100
AcDbPolyline
 90
        6
 70
     0
 43
0.0
 10
6696.210994184179
 20
17824.70780109586
 10
672.559311530249
 20
17824.70780109586
 10
672.559311530249
 20
928.7937558867343
 10
12566.96294354151
 20
928.7937558867343
 10
12566.96294354151
 20
17824.70780109586
 10
6696.210994184179
 20
17824.70780109586
  0
LWPOLYLINE
  5
14A
330
1F
100
AcDbEntity
  8
fluid
 62
   250
100
AcDbPolyline
 90
        2
 70
     0
 43
0.0
 10
6644.761127535881
 20
7885.995571892425
 10
8594.761127535881
 20
7885.995571892425
  0
LWPOLYLINE
  5
14B
330
1F
100
AcDbEntity
  8
fluid
 62
   250
100
AcDbPolyline
 90
        2
 70
     0
 43
0.0
 10
6594.761127535881
 20
7885.995571892425
 10
4644.761127535881
 20
7885.995571892425
  0
LWPOLYLINE
  5
14C
330
1F
100
AcDbEntity
  8
fluid
 62
   250
100
AcDbPolyline
 90
        2
 70
     0
 43
0.0
 10
6644.761127535881
 20
7985.995571892425
 10
8128.210732785914
 20
7985.995571892425
  0
LWPOLYLINE
  5
14D
330
1F
100
AcDbEntity
  8
fluid
 62
   250
100
AcDbPolyline
 90
        3
 70
     0
 43
0.0
 10
8009.657342192646
 20
8136.197387898057
 10
6729.761127535881
 20
8035.995571892425
 10
6644.761127535881
 20
8035.995571892425
  0
LWPOLYLINE
  5
14E
330
1F
100
AcDbEntity
  8
fluid
 62
   250
100
AcDbPolyline
 90
        3
 70
     0
 43
0.0
 10
5229.761127535881
 20
8136.197387898057
 10
6509.761127535648
 20
8035.995571892396
 10
6594.761127535881
 20
8035.995571892425
  0
LWPOLYLINE
  5
14F
330
1F
100
AcDbEntity
  8
fluid
 62
   250
100
AcDbPolyline
 90
        2
 70
     0
 43
0.0
 10
6594.761127535881
 20
7985.995571892425
 10
5111.207736942613
 20
7985.995571892425
  0
LWPOLYLINE
  5
150
330
1F
100
AcDbEntity
  8
fluid
 62
   250
100
AcDbPolyline
 90
        2
 70
     0
 43
0.0
 10
8159.657342192646
 20
10863.19738789806
 10
8159.657342192646
 20
8224.548962485693
  0
LWPOLYLINE
  5
151
330
1F
100
AcDbEntity
  8
fluid
 62
   250
100
AcDbPolyline
 90
        2
 70
     0
 43
0.0
 10
8009.657342192646
 20
10863.19738789806
 10
8009.657342192646
 20
8136.197387898057
  0
LWPOLYLINE
  5
152
330
1F
100
AcDbEntity
  8
fluid
 62
   250
100
AcDbPolyline
 90
        2
 70
     0
 43
0.0
 10
5079.761127535881
 20
10863.19738789806
 10
5079.761127535881
 20
8224.548962485693
  0
LWPOLYLINE
  5
153
330
1F
100
AcDbEntity
  8
fluid
 62
   250
100
AcDbPolyline
 90
        2
 70
     0
 43
0.0
 10
5229.761127535881
 20
10863.19738789806
 10
5229.761127535881
 20
8136.197387898057
  0
LWPOLYLINE
  5
154
330
1F
100
AcDbEntity
  8
fluid
 62
   250
100
AcDbPolyline
 90
        3
 70
     0
 43
0.0
 10
5111.207736942613
 20
7985.995571892425
 10
5079.761127535881
 20
8017.442181299157
 10
5079.761127535881
 20
8224.548962485693
  0
LWPOLYLINE
  5
155
330
1F
100
AcDbEntity
  8
fluid
 62
   250
100
AcDbPolyline
 90
        3
 70
     0
 43
0.0
 10
8128.210732785914
 20
7985.995571892425
 10
8159.657342192646
 20
8017.442181299157
 10
8159.657342192646
 20
8224.548962485693
  0
LWPOLYLINE
  5
156
330
1F
100
AcDbEntity
  8
fluid
 62
   250
100
AcDbPolyline
 90
        2
 70
     0
 43
0.0
 10
8844.761127535881
 20
8104.548962485693
 10
8844.761127535881
 20
13698.95259449696
  0
LWPOLYLINE
  5
157
330
1F
100
AcDbEntity
  8
fluid
 62
   250
100
AcDbPolyline
 90
        2
 70
     0
 43
0.0
 10
8594.761127535881
 20
13698.95259449696
 10
8594.761127535881
 20
7885.995571892425
  0
LWPOLYLINE
  5
158
330
1F
100
AcDbEntity
  8
fluid
 62
   250
100
AcDbPolyline
 90
        2
 70
     0
 43
0.0
 10
4644.761127535881
 20
7885.995571892425
 10
4644.761127535881
 20
13698.95259449696
  0
LWPOLYLINE
  5
159
330
1F
100
AcDbEntity
  8
fluid
 62
   250
100
AcDbPolyline
 90
        2
 70
     0
 43
0.0
 10
4394.761127535881
 20
8104.548962485693
 10
4394.761127535881
 20
13698.95259449696
  0
LWPOLYLINE
  5
15A
330
1F
100
AcDbEntity
  8
fluid
 62
   250
100
AcDbPolyline
 90
        2
 70
     0
 43
0.0
 10
6144.761127535881
 20
13802.50598509023
 10
7094.761127535881
 20
13802.50598509023
  0
LWPOLYLINE
  5
15B
330
1F
100
AcDbEntity
  8
fluid
 62
   250
100
AcDbPolyline
 90
        2
 70
     0
 43
0.0
 10
6909.657342192413
 20
14052.50598509023
 10
6909.761127535881
 20
14112.65949257382
  0
LWPOLYLINE
  5
15C
330
1F
100
AcDbEntity
  8
fluid
 62
   250
100
AcDbPolyline
 90
        6
 70
     0
 43
0.0
 10
6909.761127535881
 20
14426.70096622699
 10
6909.761127535881
 20
14252.65949257382
 10
6944.761127535881
 20
14252.65949257382
 10
6944.761127535881
 20
14162.65949257382
 10
6909.761127535881
 20
14162.65949257382
 10
6909.761127535881
 20
14112.65949257382
  0
LWPOLYLINE
  5
15D
330
1F
100
AcDbEntity
  8
fluid
 62
   250
100
AcDbPolyline
 90
        5
 70
     0
 43
0.0
 10
6839.761127535881
 20
14162.65949257382
 10
6889.761127535881
 20
14162.65949257382
 10
6889.761127535881
 20
14112.65949257382
 10
6839.761127535881
 20
14112.65949257382
 10
6839.761127535881
 20
14162.65949257382
  0
LWPOLYLINE
  5
15E
330
1F
100
AcDbEntity
  8
fluid
 62
   250
100
AcDbPolyline
 90
        5
 70
     0
 43
0.0
 10
6769.761127535881
 20
14162.65949257382
 10
6819.761127535881
 20
14162.65949257382
 10
6819.761127535881
 20
14112.65949257382
 10
6769.761127535881
 20
14112.65949257382
 10
6769.761127535881
 20
14162.65949257382
  0
LWPOLYLINE
  5
15F
330
1F
100
AcDbEntity
  8
fluid
 62
   250
100
AcDbPolyline
 90
        5
 70
     0
 43
0.0
 10
6699.761127535881
 20
14162.65949257382
 10
6749.761127535881
 20
14162.65949257382
 10
6749.761127535881
 20
14112.65949257382
 10
6699.761127535881
 20
14112.65949257382
 10
6699.761127535881
 20
14162.65949257382
  0
LWPOLYLINE
  5
160
330
1F
100
AcDbEntity
  8
fluid
 62
   250
100
AcDbPolyline
 90
        5
 70
     0
 43
0.0
 10
6839.761127535881
 20
14302.65949257382
 10
6889.761127535881
 20
14302.65949257382
 10
6889.761127535881
 20
14252.65949257382
 10
6839.761127535881
 20
14252.65949257382
 10
6839.761127535881
 20
14302.65949257382
  0
LWPOLYLINE
  5
161
330
1F
100
AcDbEntity
  8
fluid
 62
   250
100
AcDbPolyline
 90
        5
 70
     0
 43
0.0
 10
6769.761127535881
 20
14302.65949257382
 10
6819.761127535881
 20
14302.65949257382
 10
6819.761127535881
 20
14252.65949257382
 10
6769.761127535881
 20
14252.65949257382
 10
6769.761127535881
 20
14302.65949257382
  0
LWPOLYLINE
  5
162
330
1F
100
AcDbEntity
  8
fluid
 62
   250
100
AcDbPolyline
 90
        5
 70
     0
 43
0.0
 10
6699.761127535881
 20
14302.65949257382
 10
6749.761127535881
 20
14302.65949257382
 10
6749.761127535881
 20
14252.65949257382
 10
6699.761127535881
 20
14252.65949257382
 10
6699.761127535881
 20
14302.65949257382
  0
LWPOLYLINE
  5
163
330
1F
100
AcDbEntity
  8
fluid
 62
   250
100
AcDbPolyline
 90
        5
 70
     0
 43
0.0
 10
6874.761127535881
 20
14232.65949257382
 10
6924.761127535881
 20
14232.65949257382
 10
6924.761127535881
 20
14182.65949257382
 10
6874.761127535881
 20
14182.65949257382
 10
6874.761127535881
 20
14232.65949257382
  0
LWPOLYLINE
  5
164
330
1F
100
AcDbEntity
  8
fluid
 62
   250
100
AcDbPolyline
 90
        5
 70
     0
 43
0.0
 10
6804.761127535881
 20
14232.65949257382
 10
6854.761127535881
 20
14232.65949257382
 10
6854.761127535881
 20
14182.65949257382
 10
6804.761127535881
 20
14182.65949257382
 10
6804.761127535881
 20
14232.65949257382
  0
LWPOLYLINE
  5
165
330
1F
100
AcDbEntity
  8
fluid
 62
   250
100
AcDbPolyline
 90
        5
 70
     0
 43
0.0
 10
6734.761127535881
 20
14232.65949257382
 10
6784.761127535881
 20
14232.65949257382
 10
6784.761127535881
 20
14182.65949257382
 10
6734.761127535881
 20
14182.65949257382
 10
6734.761127535881
 20
14232.65949257382
  0
LWPOLYLINE
  5
166
330
1F
100
AcDbEntity
  8
fluid
 62
   250
100
AcDbPolyline
 90
        6
 70
     0
 43
0.0
 10
6329.761127535881
 20
14428.51994320122
 10
6329.761127535881
 20
14252.65949257382
 10
6294.761127535881
 20
14252.65949257382
 10
6294.761127535881
 20
14162.65949257382
 10
6329.761127535881
 20
14162.65949257382
 10
6329.761127535881
 20
14112.65949257382
  0
LWPOLYLINE
  5
167
330
1F
100
AcDbEntity
  8
fluid
 62
   250
100
AcDbPolyline
 90
        5
 70
     0
 43
0.0
 10
6629.761127535881
 20
14162.65949257382
 10
6679.761127535881
 20
14162.65949257382
 10
6679.761127535881
 20
14112.65949257382
 10
6629.761127535881
 20
14112.65949257382
 10
6629.761127535881
 20
14162.65949257382
  0
LWPOLYLINE
  5
168
330
1F
100
AcDbEntity
  8
fluid
 62
   250
100
AcDbPolyline
 90
        5
 70
     0
 43
0.0
 10
6559.761127535881
 20
14162.65949257382
 10
6609.761127535881
 20
14162.65949257382
 10
6609.761127535881
 20
14112.65949257382
 10
6559.761127535881
 20
14112.65949257382
 10
6559.761127535881
 20
14162.65949257382
  0
LWPOLYLINE
  5
169
330
1F
100
AcDbEntity
  8
fluid
 62
   250
100
AcDbPolyline
 90
        5
 70
     0
 43
0.0
 10
6489.761127535881
 20
14162.65949257382
 10
6539.761127535881
 20
14162.65949257382
 10
6539.761127535881
 20
14112.65949257382
 10
6489.761127535881
 20
14112.65949257382
 10
6489.761127535881
 20
14162.65949257382
  0
LWPOLYLINE
  5
16A
330
1F
100
AcDbEntity
  8
fluid
 62
   250
100
AcDbPolyline
 90
        5
 70
     0
 43
0.0
 10
6419.761127535881
 20
14162.65949257382
 10
6469.761127535881
 20
14162.65949257382
 10
6469.761127535881
 20
14112.65949257382
 10
6419.761127535881
 20
14112.65949257382
 10
6419.761127535881
 20
14162.65949257382
  0
LWPOLYLINE
  5
16B
330
1F
100
AcDbEntity
  8
fluid
 62
   250
100
AcDbPolyline
 90
        5
 70
     0
 43
0.0
 10
6349.761127535881
 20
14162.65949257382
 10
6399.761127535881
 20
14162.65949257382
 10
6399.761127535881
 20
14112.65949257382
 10
6349.761127535881
 20
14112.65949257382
 10
6349.761127535881
 20
14162.65949257382
  0
LWPOLYLINE
  5
16C
330
1F
100
AcDbEntity
  8
fluid
 62
   250
100
AcDbPolyline
 90
        5
 70
     0
 43
0.0
 10
6629.761127535881
 20
14302.65949257382
 10
6679.761127535881
 20
14302.65949257382
 10
6679.761127535881
 20
14252.65949257382
 10
6629.761127535881
 20
14252.65949257382
 10
6629.761127535881
 20
14302.65949257382
  0
LWPOLYLINE
  5
16D
330
1F
100
AcDbEntity
  8
fluid
 62
   250
100
AcDbPolyline
 90
        5
 70
     0
 43
0.0
 10
6559.761127535881
 20
14302.65949257382
 10
6609.761127535881
 20
14302.65949257382
 10
6609.761127535881
 20
14252.65949257382
 10
6559.761127535881
 20
14252.65949257382
 10
6559.761127535881
 20
14302.65949257382
  0
LWPOLYLINE
  5
16E
330
1F
100
AcDbEntity
  8
fluid
 62
   250
100
AcDbPolyline
 90
        5
 70
     0
 43
0.0
 10
6489.761127535881
 20
14302.65949257382
 10
6539.761127535881
 20
14302.65949257382
 10
6539.761127535881
 20
14252.65949257382
 10
6489.761127535881
 20
14252.65949257382
 10
6489.761127535881
 20
14302.65949257382
  0
LWPOLYLINE
  5
16F
330
1F
100
AcDbEntity
  8
fluid
 62
   250
100
AcDbPolyline
 90
        5
 70
     0
 43
0.0
 10
6419.761127535881
 20
14302.65949257382
 10
6469.761127535881
 20
14302.65949257382
 10
6469.761127535881
 20
14252.65949257382
 10
6419.761127535881
 20
14252.65949257382
 10
6419.761127535881
 20
14302.65949257382
  0
LWPOLYLINE
  5
170
330
1F
100
AcDbEntity
  8
fluid
 62
   250
100
AcDbPolyline
 90
        5
 70
     0
 43
0.0
 10
6349.761127535881
 20
14302.65949257382
 10
6399.761127535881
 20
14302.65949257382
 10
6399.761127535881
 20
14252.65949257382
 10
6349.761127535881
 20
14252.65949257382
 10
6349.761127535881
 20
14302.65949257382
  0
LWPOLYLINE
  5
171
330
1F
100
AcDbEntity
  8
fluid
 62
   250
100
AcDbPolyline
 90
        5
 70
     0
 43
0.0
 10
6664.761127535881
 20
14232.65949257382
 10
6714.761127535881
 20
14232.65949257382
 10
6714.761127535881
 20
14182.65949257382
 10
6664.761127535881
 20
14182.65949257382
 10
6664.761127535881
 20
14232.65949257382
  0
LWPOLYLINE
  5
172
330
1F
100
AcDbEntity
  8
fluid
 62
   250
100
AcDbPolyline
 90
        5
 70
     0
 43
0.0
 10
6594.761127535881
 20
14232.65949257382
 10
6644.761127535881
 20
14232.65949257382
 10
6644.761127535881
 20
14182.65949257382
 10
6594.761127535881
 20
14182.65949257382
 10
6594.761127535881
 20
14232.65949257382
  0
LWPOLYLINE
  5
173
330
1F
100
AcDbEntity
  8
fluid
 62
   250
100
AcDbPolyline
 90
        5
 70
     0
 43
0.0
 10
6524.761127535881
 20
14232.65949257382
 10
6574.761127535881
 20
14232.65949257382
 10
6574.761127535881
 20
14182.65949257382
 10
6524.761127535881
 20
14182.65949257382
 10
6524.761127535881
 20
14232.65949257382
  0
LWPOLYLINE
  5
174
330
1F
100
AcDbEntity
  8
fluid
 62
   250
100
AcDbPolyline
 90
        5
 70
     0
 43
0.0
 10
6454.761127535881
 20
14232.65949257382
 10
6504.761127535881
 20
14232.65949257382
 10
6504.761127535881
 20
14182.65949257382
 10
6454.761127535881
 20
14182.65949257382
 10
6454.761127535881
 20
14232.65949257382
  0
LWPOLYLINE
  5
175
330
1F
100
AcDbEntity
  8
fluid
 62
   250
100
AcDbPolyline
 90
        5
 70
     0
 43
0.0
 10
6384.761127535881
 20
14232.65949257382
 10
6434.761127535881
 20
14232.65949257382
 10
6434.761127535881
 20
14182.65949257382
 10
6384.761127535881
 20
14182.65949257382
 10
6384.761127535881
 20
14232.65949257382
  0
LWPOLYLINE
  5
176
330
1F
100
AcDbEntity
  8
fluid
 62
   250
100
AcDbPolyline
 90
        5
 70
     0
 43
0.0
 10
6314.761127535881
 20
14232.65949257382
 10
6364.761127535881
 20
14232.65949257382
 10
6364.761127535881
 20
14182.65949257382
 10
6314.761127535881
 20
14182.65949257382
 10
6314.761127535881
 20
14232.65949257382
  0
LWPOLYLINE
  5
177
330
1F
100
AcDbEntity
  8
fluid
 62
   250
100
AcDbPolyline
 90
        2
 70
     0
 43
0.0
 10
6329.761127535881
 20
14052.50598509023
 10
6329.761127535881
 20
14112.65949257382
  0
LWPOLYLINE
  5
178
330
1F
100
AcDbEntity
  8
insets
 62
   250
100
AcDbPolyline
 90
        2
 70
     0
 43
0.0
 10
6526.999982497351
 20
14691.40784426127
 10
6526.999982497351
 20
14877.36193867034
  0
LWPOLYLINE
  5
179
330
1F
100
AcDbEntity
  8
insets
 62
   250
100
AcDbPolyline
 90
        2
 70
     0
 43
0.0
 10
6716.379739694925
 20
14691.40784426127
 10
6716.471086967433
 20
14900.2855490743
  0
LWPOLYLINE
  5
17A
330
1F
100
AcDbEntity
  8
insets
 62
   250
100
AcDbPolyline
 90
       14
 70
     0
 43
0.0
 10
6716.471086967433
 20
14900.2855490743
 10
6716.90474110532
 20
15009.11111356004
 10
6714.777798023702
 20
15037.49319654052
 10
6704.379583236458
 20
15063.98741572927
 10
6686.63402375921
 20
15086.23964348343
 10
6663.117890426585
 20
15102.27267171467
 10
6635.920694884075
 20
15110.66189550504
 10
6607.459027308201
 20
15110.66189550504
 10
6580.261831765691
 20
15102.27267171472
 10
6556.745698433066
 20
15086.23964348343
 10
6539.000138955818
 20
15063.98741572927
 10
6528.601924168574
 20
15037.49319654052
 10
6526.474981086956
 20
15009.11111356004
 10
6526.999982497351
 20
14877.36193867034
  0
LWPOLYLINE
  5
17B
330
1F
100
AcDbEntity
  8
insets
 62
   250
100
AcDbPolyline
 90
       20
 70
     0
 43
0.0
 10
6526.999982497351
 20
14691.40784426127
 10
6396.998126652719
 20
14500.73014249228
 10
6309.840372827997
 20
14581.60071975285
 10
6250.391814564982
 20
14684.56864310109
 10
6223.934717151033
 20
14800.48476068024
 10
6232.819909796048
 20
14919.04941675394
 10
6276.257904141838
 20
15029.7276213175
 10
6350.389043766236
 20
15122.68513019221
 10
6448.626451594451
 20
15189.66226077727
 10
6562.241302833123
 20
15224.70780109586
 10
6681.138419359153
 20
15224.70780109586
 10
6794.753270597825
 20
15189.66226077727
 10
6892.99067842604
 20
15122.68513019221
 10
6967.121818050438
 20
15029.7276213175
 10
7010.559812395995
 20
14919.04941675394
 10
7019.445005041243
 20
14800.48476068024
 10
6992.987907627294
 20
14684.56864310109
 10
6933.539349364279
 20
14581.60071975285
 10
6846.381595539557
 20
14500.73014249228
 10
6716.379739694925
 20
14691.40784426127
  0
LWPOLYLINE
  5
17C
330
1F
100
AcDbEntity
  8
fluid
 62
   250
100
AcDbPolyline
 90
       18
 70
     0
 43
0.0
 10
6909.761127535881
 20
14426.70096622699
 10
7012.605602330224
 20
14518.54748705391
 10
7087.126735418266
 20
14647.62187580014
 10
7120.291759686706
 20
14792.92734119006
 10
7109.153817186992
 20
14941.55285496143
 10
7054.702562988432
 20
15080.29238798325
 10
6961.776229981495
 20
15196.81832389819
 10
6838.631730654904
 20
15280.77682193445
 10
6696.210994184179
 20
15324.70780109586
 10
6547.168728008097
 20
15324.70780109586
 10
6404.747991537371
 20
15280.77682193445
 10
6281.603492210781
 20
15196.81832389819
 10
6188.677159203844
 20
15080.29238798325
 10
6134.225905005051
 20
14941.55285496143
 10
6123.08796250557
 20
14792.92734119006
 10
6156.25298677401
 20
14647.62187580014
 10
6230.774119862052
 20
14518.54748705391
 10
6329.761127535881
 20
14428.51994320122
  0
LWPOLYLINE
  5
17D
330
1F
100
AcDbEntity
  8
fluid
 62
   250
100
AcDbPolyline
 90
        4
 70
     0
 43
0.0
 10
5644.761127535881
 20
13802.50598509023
 10
4748.314518129149
 20
13802.50598509023
 10
4644.761127535881
 20
13802.50598509023
 10
4644.761127535881
 20
13698.95259449696
  0
LWPOLYLINE
  5
17E
330
1F
100
AcDbEntity
  8
fluid
 62
   250
100
AcDbPolyline
 90
        5
 70
     0
 43
0.0
 10
5644.761127535881
 20
14052.50598509023
 10
4748.314518129149
 20
14052.50598509023
 10
4541.207736942613
 20
14052.50598509023
 10
4394.761127535881
 20
13906.05937568349
 10
4394.761127535881
 20
13698.95259449696
  0
LWPOLYLINE
  5
17F
330
1F
100
AcDbEntity
  8
fluid
 62
   250
100
AcDbPolyline
 90
        4
 70
     0
 43
0.0
 10
7594.761127535881
 20
13802.50598509023
 10
8491.207736942613
 20
13802.50598509023
 10
8594.761127535881
 20
13802.50598509023
 10
8594.761127535881
 20
13698.95259449696
  0
LWPOLYLINE
  5
180
330
1F
100
AcDbEntity
  8
fluid
 62
   250
100
AcDbPolyline
 90
        5
 70
     0
 43
0.0
 10
7594.761127535881
 20
14052.50598509023
 10
8491.207736942613
 20
14052.50598509023
 10
8698.31451812915
 20
14052.50598509023
 10
8844.761127535881
 20
13906.05937568349
 10
8844.761127535881
 20
13698.95259449696
  0
LWPOLYLINE
  5
181
330
1F
100
AcDbEntity
  8
fluid
 62
   250
100
AcDbPolyline
 90
        2
 70
     0
 43
0.0
 10
6144.761127535881
 20
13802.50598509023
 10
5644.761127535881
 20
13802.50598509023
  0
LWPOLYLINE
  5
182
330
1F
100
AcDbEntity
  8
fluid
 62
   250
100
AcDbPolyline
 90
        2
 70
     0
 43
0.0
 10
6329.761127535881
 20
14052.50598509023
 10
5644.761127535881
 20
14052.50598509023
  0
LWPOLYLINE
  5
183
330
1F
100
AcDbEntity
  8
fluid
 62
   250
100
AcDbPolyline
 90
        2
 70
     0
 43
0.0
 10
6909.657342192413
 20
14052.50598509023
 10
7594.761127535881
 20
14052.50598509023
  0
LWPOLYLINE
  5
184
330
1F
100
AcDbEntity
  8
fluid
 62
   250
100
AcDbPolyline
 90
        2
 70
     0
 43
0.0
 10
7094.761127535881
 20
13802.50598509023
 10
7594.761127535881
 20
13802.50598509023
  0
LWPOLYLINE
  5
185
330
1F
100
AcDbEntity
  8
fluid
 62
   250
100
AcDbPolyline
 90
        3
 70
     0
 43
0.0
 10
6644.761127535881
 20
7835.995571892425
 10
6729.761127535881
 20
7835.995571892454
 10
7094.761127535881
 20
7750.995571892425
  0
LWPOLYLINE
  5
186
330
1F
100
AcDbEntity
  8
fluid
 62
   250
100
AcDbPolyline
 90
        3
 70
     0
 43
0.0
 10
6594.761127535881
 20
7835.995571892425
 10
6509.761127535881
 20
7835.995571892454
 10
6144.761127535881
 20
7750.995571892425
  0
TEXT
  5
187
330
1F
100
AcDbEntity
  8
fluid
 62
   250
100
AcDbText
 10
1638.284298569126
 20
1678.793755886734
 30
0.0
 40
734.2803532077291
  1
50µm
100
AcDbText
  0
LWPOLYLINE
  5
189
330
1F
100
AcDbEntity
  8
fluid
 62
   250
100
AcDbPolyline
 90
        5
 70
     0
 43
0.0
 10
5644.761127535881
 20
7750.995571892425
 10
4748.314518129149
 20
7750.995571892425
 10
4541.207736942613
 20
7750.995571892425
 10
4394.761127535881
 20
7897.442181299157
 10
4394.761127535881
 20
8104.548962485693
  0
LWPOLYLINE
  5
18A
330
1F
100
AcDbEntity
  8
fluid
 62
   250
100
AcDbPolyline
 90
        5
 70
     0
 43
0.0
 10
7594.761127535881
 20
7750.995571892425
 10
8491.207736942613
 20
7750.995571892425
 10
8698.31451812915
 20
7750.995571892425
 10
8844.761127535881
 20
7897.442181299157
 10
8844.761127535881
 20
8104.548962485693
  0
LWPOLYLINE
  5
18B
330
1F
100
AcDbEntity
  8
fluid
 62
   250
100
AcDbPolyline
 90
        2
 70
     0
 43
0.0
 10
6144.761127535881
 20
7750.995571892425
 10
5644.761127535881
 20
7750.995571892425
  0
LWPOLYLINE
  5
18C
330
1F
100
AcDbEntity
  8
fluid
 62
   250
100
AcDbPolyline
 90
        2
 70
     0
 43
0.0
 10
7094.761127535881
 20
7750.995571892425
 10
7594.761127535881
 20
7750.995571892425
  0
ENDSEC
  0
SECTION
  2
OBJECTS
  0
DICTIONARY
  5
C
330
0
100
AcDbDictionary
281
     1
  3
ACAD_GROUP
350
D
  3
ACAD_IMAGE_VARS
350
6A
  3
ACAD_LAYOUT
350
1A
  3
ACAD_MLINESTYLE
350
17
  3
ACAD_PLOTSETTINGS
350
19
  3
ACAD_PLOTSTYLENAME
350
E
  3
ACAD_SCALELIST
350
40
  3
AcDbVariableDictionary
350
3D
  3
APPDATA
350
71
  0
DICTIONARY
  5
1A6
330
2
100
AcDbDictionary
280
     1
281
     1
  3
ACAD_LAYERSTATES
360
1A7
  0
DICTIONARY
  5
D
102
{ACAD_REACTORS
330
C
102
}
330
C
100
AcDbDictionary
281
     1
  0
RASTERVARIABLES
  5
6A
102
{ACAD_REACTORS
330
C
102
}
330
C
100
AcDbRasterVariables
 90
        0
 70
     1
 71
     1
 72
     1
  0
DICTIONARY
  5
1A
102
{ACAD_REACTORS
330
C
102
}
330
C
100
AcDbDictionary
281
     1
  3
Model
350
22
  3
Sheet1
350
1E
  3
Sheet2
350
26
  0
DICTIONARY
  5
17
102
{ACAD_REACTORS
330
C
102
}
330
C
100
AcDbDictionary
281
     1
  3
Standard
350
18
  0
DICTIONARY
  5
19
102
{ACAD_REACTORS
330
C
102
}
330
C
100
AcDbDictionary
281
     1
  0
ACDBDICTIONARYWDFLT
  5
E
102
{ACAD_REACTORS
330
C
102
}
330
C
100
AcDbDictionary
281
     1
  3
Normal
350
F
100
AcDbDictionaryWithDefault
340
F
  0
DICTIONARY
  5
40
102
{ACAD_REACTORS
330
C
102
}
330
C
100
AcDbDictionary
281
     1
  3
A0
350
41
  3
A1
350
42
  3
A2
350
43
  3
A3
350
44
  3
A4
350
45
  3
A5
350
46
  3
A6
350
47
  3
A7
350
48
  3
A8
350
49
  3
A9
350
4A
  3
B0
350
4B
  3
B1
350
4C
  3
B2
350
4D
  3
B3
350
4E
  3
B4
350
4F
  3
B5
350
50
  3
B6
350
51
  3
B7
350
52
  3
B8
350
53
  3
B9
350
54
  3
C0
350
55
  3
C1
350
56
  3
C2
350
57
  3
C3
350
58
  3
C4
350
59
  3
C5
350
5A
  3
C6
350
5B
  3
C7
350
5C
  3
C8
350
5D
  3
C9
350
5E
  3
D0
350
5F
  3
D1
350
60
  3
D2
350
61
  0
DICTIONARY
  5
3D
102
{ACAD_REACTORS
330
C
102
}
330
C
100
AcDbDictionary
281
     1
  3
CANNOSCALE
350
1AD
  0
DICTIONARY
  5
71
102
{ACAD_REACTORS
330
C
102
}
330
C
100
AcDbDictionary
281
     1
  0
DICTIONARY
  5
1A7
102
{ACAD_REACTORS
330
1A6
102
}
330
1A6
100
AcDbDictionary
281
     1
  3
ARGON_LAYERP_1
350
1A8
  0
LAYOUT
  5
22
102
{ACAD_REACTORS
330
1A
102
}
330
1A
100
AcDbPlotSettings
  1

  2
none_device
  4
ISO_A3_(420.00_x_297.00_MM)
  6

 40
7.5
 41
20.0
 42
7.5
 43
20.0
 44
420.0
 45
297.0
 46
20.78282828282826
 47
0.0
 48
0.0
 49
0.0
140
0.0
141
0.0
142
1.0
143
1.155642023346303
 70
  1204
 72
     1
 73
     0
 74
     1
  7
monochrome.ctb
 75
     0
147
0.8653198653198654
148
-134.1869158878504
149
0.0
100
AcDbLayout
  1
Model
 70
     1
 71
     0
 10
-343.3014257716386
 20
-253.623850611657
 11
13426.61763136231
 21
19340.43015515901
 12
0.0
 22
0.0
 32
0.0
 14
1.000000000000000E+20
 24
1.000000000000000E+20
 34
1.000000000000000E+20
 15
-1.000000000000000E+20
 25
-1.000000000000000E+20
 35
-1.000000000000000E+20
146
0.0
 13
0.0
 23
0.0
 33
0.0
 16
1.0
 26
0.0
 36
0.0
 17
0.0
 27
1.0
 37
0.0
 76
     0
330
1F
331
29
  0
LAYOUT
  5
1E
102
{ACAD_REACTORS
330
1A
102
}
330
1A
100
AcDbPlotSettings
  1

  2
none_device
  4

  6

 40
0.0
 41
0.0
 42
0.0
 43
0.0
 44
0.0
 45
0.0
 46
0.0
 47
0.0
 48
0.0
 49
0.0
140
0.0
141
0.0
142
1.0
143
1.0
 70
   688
 72
     0
 73
     0
 74
     5
  7

 75
    16
147
1.0
148
0.0
149
0.0
100
AcDbLayout
  1
Sheet1
 70
     1
 71
     1
 10
0.0
 20
0.0
 11
420.0
 21
297.0
 12
0.0
 22
0.0
 32
0.0
 14
1.000000000000000E+20
 24
1.000000000000000E+20
 34
1.000000000000000E+20
 15
-1.000000000000000E+20
 25
-1.000000000000000E+20
 35
-1.000000000000000E+20
146
0.0
 13
0.0
 23
0.0
 33
0.0
 16
1.0
 26
0.0
 36
0.0
 17
0.0
 27
1.0
 37
0.0
 76
     0
330
1B
  0
LAYOUT
  5
26
102
{ACAD_REACTORS
330
1A
102
}
330
1A
100
AcDbPlotSettings
  1

  2
none_device
  4

  6

 40
0.0
 41
0.0
 42
0.0
 43
0.0
 44
0.0
 45
0.0
 46
0.0
 47
0.0
 48
0.0
 49
0.0
140
0.0
141
0.0
142
1.0
143
1.0
 70
   688
 72
     0
 73
     0
 74
     5
  7

 75
    16
147
1.0
148
0.0
149
0.0
100
AcDbLayout
  1
Sheet2
 70
     1
 71
     2
 10
0.0
 20
0.0
 11
0.0
 21
0.0
 12
0.0
 22
0.0
 32
0.0
 14
0.0
 24
0.0
 34
0.0
 15
0.0
 25
0.0
 35
0.0
146
0.0
 13
0.0
 23
0.0
 33
0.0
 16
1.0
 26
0.0
 36
0.0
 17
0.0
 27
1.0
 37
0.0
 76
     0
330
23
  0
MLINESTYLE
  5
18
102
{ACAD_REACTORS
330
17
102
}
330
17
100
AcDbMlineStyle
  2
Standard
 70
     0
  3

 62
   256
 51
90.0
 52
90.0
 71
     2
 49
0.5
 62
   256
  6
BYLAYER
 49
-0.5
 62
   256
  6
BYLAYER
  0
ACDBPLACEHOLDER
  5
F
102
{ACAD_REACTORS
330
E
102
}
330
E
  0
SCALE
  5
41
102
{ACAD_REACTORS
330
40
102
}
330
40
100
AcDbScale
 70
     0
300
1:1
140
1.0
141
1.0
290
     1
  0
SCALE
  5
42
102
{ACAD_REACTORS
330
40
102
}
330
40
100
AcDbScale
 70
     0
300
1:2
140
1.0
141
2.0
290
     0
  0
SCALE
  5
43
102
{ACAD_REACTORS
330
40
102
}
330
40
100
AcDbScale
 70
     0
300
1:4
140
1.0
141
4.0
290
     0
  0
SCALE
  5
44
102
{ACAD_REACTORS
330
40
102
}
330
40
100
AcDbScale
 70
     0
300
1:5
140
1.0
141
5.0
290
     0
  0
SCALE
  5
45
102
{ACAD_REACTORS
330
40
102
}
330
40
100
AcDbScale
 70
     0
300
1:8
140
1.0
141
8.0
290
     0
  0
SCALE
  5
46
102
{ACAD_REACTORS
330
40
102
}
330
40
100
AcDbScale
 70
     0
300
1:10
140
1.0
141
10.0
290
     0
  0
SCALE
  5
47
102
{ACAD_REACTORS
330
40
102
}
330
40
100
AcDbScale
 70
     0
300
1:16
140
1.0
141
16.0
290
     0
  0
SCALE
  5
48
102
{ACAD_REACTORS
330
40
102
}
330
40
100
AcDbScale
 70
     0
300
1:20
140
1.0
141
20.0
290
     0
  0
SCALE
  5
49
102
{ACAD_REACTORS
330
40
102
}
330
40
100
AcDbScale
 70
     0
300
1:30
140
1.0
141
30.0
290
     0
  0
SCALE
  5
4A
102
{ACAD_REACTORS
330
40
102
}
330
40
100
AcDbScale
 70
     0
300
1:40
140
1.0
141
40.0
290
     0
  0
SCALE
  5
4B
102
{ACAD_REACTORS
330
40
102
}
330
40
100
AcDbScale
 70
     0
300
1:50
140
1.0
141
50.0
290
     0
  0
SCALE
  5
4C
102
{ACAD_REACTORS
330
40
102
}
330
40
100
AcDbScale
 70
     0
300
1:100
140
1.0
141
100.0
290
     0
  0
SCALE
  5
4D
102
{ACAD_REACTORS
330
40
102
}
330
40
100
AcDbScale
 70
     0
300
2:1
140
2.0
141
1.0
290
     0
  0
SCALE
  5
4E
102
{ACAD_REACTORS
330
40
102
}
330
40
100
AcDbScale
 70
     0
300
4:1
140
4.0
141
1.0
290
     0
  0
SCALE
  5
4F
102
{ACAD_REACTORS
330
40
102
}
330
40
100
AcDbScale
 70
     0
300
8:1
140
8.0
141
1.0
290
     0
  0
SCALE
  5
50
102
{ACAD_REACTORS
330
40
102
}
330
40
100
AcDbScale
 70
     0
300
10:1
140
10.0
141
1.0
290
     0
  0
SCALE
  5
51
102
{ACAD_REACTORS
330
40
102
}
330
40
100
AcDbScale
 70
     0
300
100:1
140
100.0
141
1.0
290
     0
  0
SCALE
  5
52
102
{ACAD_REACTORS
330
40
102
}
330
40
100
AcDbScale
 70
     0
300
1/128" = 1'-0"
140
0.0078125
141
12.0
290
     0
  0
SCALE
  5
53
102
{ACAD_REACTORS
330
40
102
}
330
40
100
AcDbScale
 70
     0
300
1/64" = 1'-0"
140
0.015625
141
12.0
290
     0
  0
SCALE
  5
54
102
{ACAD_REACTORS
330
40
102
}
330
40
100
AcDbScale
 70
     0
300
1/32" = 1'-0"
140
0.03125
141
12.0
290
     0
  0
SCALE
  5
55
102
{ACAD_REACTORS
330
40
102
}
330
40
100
AcDbScale
 70
     0
300
1/16" = 1'-0"
140
0.0625
141
12.0
290
     0
  0
SCALE
  5
56
102
{ACAD_REACTORS
330
40
102
}
330
40
100
AcDbScale
 70
     0
300
3/32" = 1'-0"
140
0.09375
141
12.0
290
     0
  0
SCALE
  5
57
102
{ACAD_REACTORS
330
40
102
}
330
40
100
AcDbScale
 70
     0
300
1/8" = 1'-0"
140
0.125
141
12.0
290
     0
  0
SCALE
  5
58
102
{ACAD_REACTORS
330
40
102
}
330
40
100
AcDbScale
 70
     0
300
3/16" = 1'-0"
140
0.1875
141
12.0
290
     0
  0
SCALE
  5
59
102
{ACAD_REACTORS
330
40
102
}
330
40
100
AcDbScale
 70
     0
300
1/4" = 1'-0"
140
0.25
141
12.0
290
     0
  0
SCALE
  5
5A
102
{ACAD_REACTORS
330
40
102
}
330
40
100
AcDbScale
 70
     0
300
3/8" = 1'-0"
140
0.375
141
12.0
290
     0
  0
SCALE
  5
5B
102
{ACAD_REACTORS
330
40
102
}
330
40
100
AcDbScale
 70
     0
300
1/2" = 1'-0"
140
0.5
141
12.0
290
     0
  0
SCALE
  5
5C
102
{ACAD_REACTORS
330
40
102
}
330
40
100
AcDbScale
 70
     0
300
3/4" = 1'-0"
140
0.75
141
12.0
290
     0
  0
SCALE
  5
5D
102
{ACAD_REACTORS
330
40
102
}
330
40
100
AcDbScale
 70
     0
300
1" = 1'-0"
140
1.0
141
12.0
290
     0
  0
SCALE
  5
5E
102
{ACAD_REACTORS
330
40
102
}
330
40
100
AcDbScale
 70
     0
300
1-1/2" = 1'-0"
140
1.5
141
12.0
290
     0
  0
SCALE
  5
5F
102
{ACAD_REACTORS
330
40
102
}
330
40
100
AcDbScale
 70
     0
300
3" = 1'-0"
140
3.0
141
12.0
290
     0
  0
SCALE
  5
60
102
{ACAD_REACTORS
330
40
102
}
330
40
100
AcDbScale
 70
     0
300
6" = 1'-0"
140
6.0
141
12.0
290
     0
  0
SCALE
  5
61
102
{ACAD_REACTORS
330
40
102
}
330
40
100
AcDbScale
 70
     0
300
1'-0" = 1'-0"
140
12.0
141
12.0
290
     0
  0
DICTIONARYVAR
  5
1AD
102
{ACAD_REACTORS
330
3D
102
}
330
3D
100
DictionaryVariables
280
     0
  1
1:1
  0
XRECORD
  5
1A8
102
{ACAD_REACTORS
330
1A7
102
}
330
1A7
100
AcDbXrecord
280
     1
 91
     1023
301

290
     0
302
0
330
10
 90
        8
 62
     7
370
    -3
331
16
  1
Color_7
330
77
 90
        8
 62
     4
370
    -3
331
16
  1
Color_4
330
95
 90
        8
 62
    30
370
    -3
331
16
  1
Color_30
  0
ENDSEC
  0
EOF
