  0
SECTION
  2
HEADER
  9
$ACADVER
  1
AC1015
  9
$ACADMAINTVER
 70
     6
  9
$DWGCODEPAGE
  3
ANSI_1251
  9
$INSBASE
 10
0.0
 20
0.0
 30
0.0
  9
$EXTMIN
 10
1.000000000000000E+20
 20
1.000000000000000E+20
 30
1.000000000000000E+20
  9
$EXTMAX
 10
-1.000000000000000E+20
 20
-1.000000000000000E+20
 30
-1.000000000000000E+20
  9
$LIMMIN
 10
0.0
 20
0.0
  9
$LIMMAX
 10
420.0
 20
297.0
  9
$ORTHOMODE
 70
     0
  9
$REGENMODE
 70
     1
  9
$FILLMODE
 70
     1
  9
$QTEXTMODE
 70
     0
  9
$MIRRTEXT
 70
     0
  9
$LTSCALE
 40
1.0
  9
$ATTMODE
 70
     1
  9
$TEXTSIZE
 40
2.5
  9
$TRACEWID
 40
1.0
  9
$TEXTSTYLE
  7
Standard
  9
$CLAYER
  8
0
  9
$CELTYPE
  6
ByLayer
  9
$CECOLOR
 62
   256
  9
$CELTSCALE
 40
1.0
  9
$DISPSILH
 70
     0
  9
$DIMSCALE
 40
1.0
  9
$DIMASZ
 40
2.5
  9
$DIMEXO
 40
0.625
  9
$DIMDLI
 40
3.75
  9
$DIMRND
 40
0.0
  9
$DIMDLE
 40
0.0
  9
$DIMEXE
 40
1.25
  9
$DIMTP
 40
0.0
  9
$DIMTM
 40
0.0
  9
$DIMTXT
 40
2.5
  9
$DIMCEN
 40
2.5
  9
$DIMTSZ
 40
0.0
  9
$DIMTOL
 70
     0
  9
$DIMLIM
 70
     0
  9
$DIMTIH
 70
     0
  9
$DIMTOH
 70
     0
  9
$DIMSE1
 70
     0
  9
$DIMSE2
 70
     0
  9
$DIMTAD
 70
     1
  9
$DIMZIN
 70
     8
  9
$DIMBLK
  1

  9
$DIMASO
 70
     1
  9
$DIMSHO
 70
     1
  9
$DIMPOST
  1

  9
$DIMAPOST
  1

  9
$DIMALT
 70
     0
  9
$DIMALTD
 70
     3
  9
$DIMALTF
 40
0.03937007874016
  9
$DIMLFAC
 40
1.0
  9
$DIMTOFL
 70
     1
  9
$DIMTVP
 40
0.0
  9
$DIMTIX
 70
     0
  9
$DIMSOXD
 70
     0
  9
$DIMSAH
 70
     0
  9
$DIMBLK1
  1

  9
$DIMBLK2
  1

  9
$DIMSTYLE
  2
ISO-25
  9
$DIMCLRD
 70
     0
  9
$DIMCLRE
 70
     0
  9
$DIMCLRT
 70
     0
  9
$DIMTFAC
 40
1.0
  9
$DIMGAP
 40
0.625
  9
$DIMJUST
 70
     0
  9
$DIMSD1
 70
     0
  9
$DIMSD2
 70
     0
  9
$DIMTOLJ
 70
     0
  9
$DIMTZIN
 70
     8
  9
$DIMALTZ
 70
     0
  9
$DIMALTTZ
 70
     0
  9
$DIMUPT
 70
     0
  9
$DIMDEC
 70
     2
  9
$DIMTDEC
 70
     2
  9
$DIMALTU
 70
     2
  9
$DIMALTTD
 70
     3
  9
$DIMTXSTY
  7
Standard
  9
$DIMAUNIT
 70
     0
  9
$DIMADEC
 70
     0
  9
$DIMALTRND
 40
0.0
  9
$DIMAZIN
 70
     0
  9
$DIMDSEP
 70
    44
  9
$DIMATFIT
 70
     3
  9
$DIMFRAC
 70
     0
  9
$DIMLDRBLK
  1

  9
$DIMLUNIT
 70
     2
  9
$DIMLWD
 70
    -2
  9
$DIMLWE
 70
    -2
  9
$DIMTMOVE
 70
     0
  9
$LUNITS
 70
     2
  9
$LUPREC
 70
     3
  9
$SKETCHINC
 40
1.0
  9
$FILLETRAD
 40
10.0
  9
$AUNITS
 70
     0
  9
$AUPREC
 70
     0
  9
$MENU
  1
.
  9
$ELEVATION
 40
0.0
  9
$PELEVATION
 40
0.0
  9
$THICKNESS
 40
0.0
  9
$LIMCHECK
 70
     0
  9
$CHAMFERA
 40
10.0
  9
$CHAMFERB
 40
10.0
  9
$CHAMFERC
 40
20.0
  9
$CHAMFERD
 40
0.0
  9
$SKPOLY
 70
     0
  9
$TDCREATE
 40
2455022.637359514
  9
$TDUCREATE
 40
2455022.637359514
  9
$TDUPDATE
 40
2456247.505047789
  9
$TDUUPDATE
 40
2456247.505047789
  9
$TDINDWG
 40
0.0000000116
  9
$TDUSRTIMER
 40
2456247.503991632
  9
$USRTIMER
 70
     1
  9
$ANGBASE
 50
0.0
  9
$ANGDIR
 70
     0
  9
$PDMODE
 70
     0
  9
$PDSIZE
 40
0.0
  9
$PLINEWID
 40
0.0
  9
$SPLFRAME
 70
     0
  9
$SPLINETYPE
 70
     6
  9
$SPLINESEGS
 70
     8
  9
$HANDSEED
  5
11C
  9
$SURFTAB1
 70
     6
  9
$SURFTAB2
 70
     6
  9
$SURFTYPE
 70
     6
  9
$SURFU
 70
     6
  9
$SURFV
 70
     6
  9
$UCSBASE
  2

  9
$UCSNAME
  2

  9
$UCSORG
 10
0.0
 20
0.0
 30
0.0
  9
$UCSXDIR
 10
1.0
 20
0.0
 30
0.0
  9
$UCSYDIR
 10
0.0
 20
1.0
 30
0.0
  9
$UCSORTHOREF
  2

  9
$UCSORTHOVIEW
 70
     0
  9
$UCSORGTOP
 10
0.0
 20
0.0
 30
0.0
  9
$UCSORGBOTTOM
 10
0.0
 20
0.0
 30
0.0
  9
$UCSORGLEFT
 10
0.0
 20
0.0
 30
0.0
  9
$UCSORGRIGHT
 10
0.0
 20
0.0
 30
0.0
  9
$UCSORGFRONT
 10
0.0
 20
0.0
 30
0.0
  9
$UCSORGBACK
 10
0.0
 20
0.0
 30
0.0
  9
$PUCSBASE
  2

  9
$PUCSNAME
  2

  9
$PUCSORG
 10
0.0
 20
0.0
 30
0.0
  9
$PUCSXDIR
 10
1.0
 20
0.0
 30
0.0
  9
$PUCSYDIR
 10
0.0
 20
1.0
 30
0.0
  9
$PUCSORTHOREF
  2

  9
$PUCSORTHOVIEW
 70
     0
  9
$PUCSORGTOP
 10
0.0
 20
0.0
 30
0.0
  9
$PUCSORGBOTTOM
 10
0.0
 20
0.0
 30
0.0
  9
$PUCSORGLEFT
 10
0.0
 20
0.0
 30
0.0
  9
$PUCSORGRIGHT
 10
0.0
 20
0.0
 30
0.0
  9
$PUCSORGFRONT
 10
0.0
 20
0.0
 30
0.0
  9
$PUCSORGBACK
 10
0.0
 20
0.0
 30
0.0
  9
$USERI1
 70
     0
  9
$USERI2
 70
     0
  9
$USERI3
 70
     0
  9
$USERI4
 70
     0
  9
$USERI5
 70
     0
  9
$USERR1
 40
0.0
  9
$USERR2
 40
0.0
  9
$USERR3
 40
0.0
  9
$USERR4
 40
0.0
  9
$USERR5
 40
0.0
  9
$WORLDVIEW
 70
     1
  9
$SHADEDGE
 70
     3
  9
$SHADEDIF
 70
    70
  9
$TILEMODE
 70
     1
  9
$MAXACTVP
 70
    64
  9
$PINSBASE
 10
0.0
 20
0.0
 30
0.0
  9
$PLIMCHECK
 70
     0
  9
$PEXTMIN
 10
1.000000000000000E+20
 20
1.000000000000000E+20
 30
1.000000000000000E+20
  9
$PEXTMAX
 10
-1.000000000000000E+20
 20
-1.000000000000000E+20
 30
-1.000000000000000E+20
  9
$PLIMMIN
 10
0.0
 20
0.0
  9
$PLIMMAX
 10
420.0
 20
297.0
  9
$UNITMODE
 70
     0
  9
$VISRETAIN
 70
     1
  9
$PLINEGEN
 70
     0
  9
$PSLTSCALE
 70
     1
  9
$TREEDEPTH
 70
  3020
  9
$CMLSTYLE
  2
Standard
  9
$CMLJUST
 70
     0
  9
$CMLSCALE
 40
20.0
  9
$PROXYGRAPHICS
 70
     1
  9
$MEASUREMENT
 70
     1
  9
$CELWEIGHT
370
    -1
  9
$ENDCAPS
280
     0
  9
$JOINSTYLE
280
     0
  9
$LWDISPLAY
290
     0
  9
$INSUNITS
 70
     4
  9
$HYPERLINKBASE
  1

  9
$STYLESHEET
  1

  9
$XEDIT
290
     1
  9
$CEPSNTYPE
380
     0
  9
$PSTYLEMODE
290
     1
  9
$FINGERPRINTGUID
  2
{EC6BB858-51AA-46EC-B484-6C9CC7AB3E2E}
  9
$VERSIONGUID
  2
{FAEB1C32-E019-11D5-929B-00C0DF256EC4}
  9
$EXTNAMES
290
     1
  9
$PSVPSCALE
 40
0.0
  9
$OLESTARTUP
290
     0
  0
ENDSEC
  0
SECTION
  2
CLASSES
  0
CLASS
  1
ACDBDICTIONARYWDFLT
  2
AcDbDictionaryWithDefault
  3
ObjectDBX Classes
 90
        0
280
     0
281
     0
  0
CLASS
  1
VISUALSTYLE
  2
AcDbVisualStyle
  3
ObjectDBX Classes
 90
     4095
280
     0
281
     0
  0
CLASS
  1
TABLESTYLE
  2
AcDbTableStyle
  3
ObjectDBX Classes
 90
     4095
280
     0
281
     0
  0
CLASS
  1
DICTIONARYVAR
  2
AcDbDictionaryVar
  3
ObjectDBX Classes
 90
        0
280
     0
281
     0
  0
CLASS
  1
SCALE
  2
AcDbScale
  3
ObjectDBX Classes
 90
     1153
280
     0
281
     0
  0
CLASS
  1
CELLSTYLEMAP
  2
AcDbCellStyleMap
  3
ObjectDBX Classes
 90
     1152
280
     0
281
     0
  0
CLASS
  1
RASTERVARIABLES
  2
AcDbRasterVariables
  3
ISM
 90
        0
280
     0
281
     0
  0
CLASS
  1
MATERIAL
  2
AcDbMaterial
  3
ObjectDBX Classes
 90
     1153
280
     0
281
     0
  0
CLASS
  1
ACDBPLACEHOLDER
  2
AcDbPlaceHolder
  3
ObjectDBX Classes
 90
        0
280
     0
281
     0
  0
CLASS
  1
LAYOUT
  2
AcDbLayout
  3
ObjectDBX Classes
 90
        0
280
     0
281
     0
  0
ENDSEC
  0
SECTION
  2
TABLES
  0
TABLE
  2
VPORT
  5
8
330
0
100
AcDbSymbolTable
 70
     1
  0
VPORT
  5
29
330
8
100
AcDbSymbolTableRecord
100
AcDbViewportTableRecord
  2
*Active
 70
     0
 10
0.0
 20
0.0
 11
1.0
 21
1.0
 12
13116.69154632141
 22
9739.056677823446
 13
0.0
 23
0.0
 14
10.0
 24
10.0
 15
10.0
 25
10.0
 16
0.0
 26
0.0
 36
1.0
 17
-134.1869158878508
 27
0.0
 37
0.0
 40
26728.61931785064
 41
1.956043956043956
 42
50.0
 43
0.0
 44
0.0
 50
0.0
 51
0.0
 71
    16
 72
  1000
 73
     1
 74
     3
 75
     0
 76
     0
 77
     0
 78
     0
281
     0
 65
     1
110
0.0
120
0.0
130
0.0
111
1.0
121
0.0
131
0.0
112
0.0
122
1.0
132
0.0
 79
     0
146
0.0
  0
ENDTAB
  0
TABLE
  2
LTYPE
  5
5
330
0
100
AcDbSymbolTable
 70
     1
  0
LTYPE
  5
14
330
5
100
AcDbSymbolTableRecord
100
AcDbLinetypeTableRecord
  2
ByBlock
 70
     0
  3

 72
    65
 73
     0
 40
0.0
  0
LTYPE
  5
15
330
5
100
AcDbSymbolTableRecord
100
AcDbLinetypeTableRecord
  2
ByLayer
 70
     0
  3

 72
    65
 73
     0
 40
0.0
  0
LTYPE
  5
16
330
5
100
AcDbSymbolTableRecord
100
AcDbLinetypeTableRecord
  2
Continuous
 70
     0
  3
Solid line
 72
    65
 73
     0
 40
0.0
  0
ENDTAB
  0
TABLE
  2
LAYER
  5
2
330
0
100
AcDbSymbolTable
 70
     3
  0
LAYER
  5
10
330
2
100
AcDbSymbolTableRecord
100
AcDbLayerTableRecord
  2
0
 70
     0
 62
     7
  6
Continuous
370
    -3
390
F
  0
LAYER
  5
77
330
2
100
AcDbSymbolTableRecord
100
AcDbLayerTableRecord
  2
fluid
 70
     0
 62
     4
  6
Continuous
370
    -3
390
F
1001
AcAecLayerStandard
1000

1000

  0
LAYER
  5
7D
330
2
100
AcDbSymbolTableRecord
100
AcDbLayerTableRecord
  2
insets
 70
     0
 62
    30
  6
Continuous
370
    -3
390
F
1001
AcAecLayerStandard
1000

1000

  0
ENDTAB
  0
TABLE
  2
STYLE
  5
3
330
0
100
AcDbSymbolTable
 70
     1
  0
STYLE
  5
11
330
3
100
AcDbSymbolTableRecord
100
AcDbTextStyleTableRecord
  2
Standard
 70
     0
 40
0.0
 41
1.0
 50
0.0
 71
     0
 42
2.5
  3
txt
  4

  0
ENDTAB
  0
TABLE
  2
VIEW
  5
6
330
0
100
AcDbSymbolTable
 70
     0
  0
ENDTAB
  0
TABLE
  2
UCS
  5
7
330
0
100
AcDbSymbolTable
 70
     0
  0
ENDTAB
  0
TABLE
  2
APPID
  5
9
330
0
100
AcDbSymbolTable
 70
     2
  0
APPID
  5
12
330
9
100
AcDbSymbolTableRecord
100
AcDbRegAppTableRecord
  2
ACAD
 70
     0
  0
APPID
  5
79
330
9
100
AcDbSymbolTableRecord
100
AcDbRegAppTableRecord
  2
AcAecLayerStandard
 70
     0
  0
ENDTAB
  0
TABLE
  2
DIMSTYLE
  5
A
330
0
100
AcDbSymbolTable
 70
     1
100
AcDbDimStyleTable
  0
DIMSTYLE
105
27
330
A
100
AcDbSymbolTableRecord
100
AcDbDimStyleTableRecord
  2
ISO-25
 70
     0
 41
2.5
 42
0.625
 43
3.75
 44
1.25
 73
     0
 74
     0
 77
     1
 78
     8
140
2.5
141
2.5
143
0.03937007874016
147
0.625
171
     3
172
     1
178
     0
271
     2
272
     2
274
     3
278
    44
283
     0
284
     8
340
11
  0
ENDTAB
  0
TABLE
  2
BLOCK_RECORD
  5
1
330
0
100
AcDbSymbolTable
 70
     1
  0
BLOCK_RECORD
  5
1F
330
1
100
AcDbSymbolTableRecord
100
AcDbBlockTableRecord
  2
*Model_Space
340
22
  0
BLOCK_RECORD
  5
1B
330
1
100
AcDbSymbolTableRecord
100
AcDbBlockTableRecord
  2
*Paper_Space
340
1E
  0
BLOCK_RECORD
  5
23
330
1
100
AcDbSymbolTableRecord
100
AcDbBlockTableRecord
  2
*Paper_Space0
340
26
  0
ENDTAB
  0
ENDSEC
  0
SECTION
  2
BLOCKS
  0
BLOCK
  5
20
330
1F
100
AcDbEntity
  8
0
100
AcDbBlockBegin
  2
*Model_Space
 70
     0
 10
0.0
 20
0.0
 30
0.0
  3
*Model_Space
  1

  0
ENDBLK
  5
21
330
1F
100
AcDbEntity
  8
0
100
AcDbBlockEnd
  0
BLOCK
  5
1C
330
1B
100
AcDbEntity
 67
     1
  8
0
100
AcDbBlockBegin
  2
*Paper_Space
 70
     0
 10
0.0
 20
0.0
 30
0.0
  3
*Paper_Space
  1

  0
ENDBLK
  5
1D
330
1B
100
AcDbEntity
 67
     1
  8
0
100
AcDbBlockEnd
  0
BLOCK
  5
24
330
23
100
AcDbEntity
  8
0
100
AcDbBlockBegin
  2
*Paper_Space0
 70
     0
 10
0.0
 20
0.0
 30
0.0
  3
*Paper_Space0
  1

  0
ENDBLK
  5
25
330
23
100
AcDbEntity
  8
0
100
AcDbBlockEnd
  0
ENDSEC
  0
SECTION
  2
ENTITIES
  0
LWPOLYLINE
  5
76
330
1F
100
AcDbEntity
  8
0
100
AcDbPolyline
 90
        2
 70
     0
 43
0.0
 10
6634.318299522158
 20
7105.451266555145
 10
7134.318299522158
 20
7105.451266555145
  0
LWPOLYLINE
  5
7B
330
1F
100
AcDbEntity
  8
0
100
AcDbPolyline
 90
       18
 70
     0
 43
0.0
 10
5876.556256462354
 20
3940.784250820027
 10
5767.30054426007
 20
3839.409764591401
 10
5692.779411172029
 20
3710.335375845229
 10
5659.614386903588
 20
3565.029910455254
 10
5670.752329403185
 20
3416.40439668388
 10
5725.203583601862
 20
3277.664863662067
 10
5818.129916608683
 20
3161.138927747117
 10
5941.27441593539
 20
3077.180429710861
 10
6083.695152405999
 20
3033.249450549454
 10
6232.737418582197
 20
3033.249450549454
 10
6375.158155052923
 20
3077.180429710861
 10
6498.30265437963
 20
3161.138927747117
 10
6591.228987386334
 20
3277.664863662067
 10
6645.680241585011
 20
3416.40439668388
 10
6656.818184084725
 20
3565.029910455254
 10
6623.653159816167
 20
3710.335375845229
 10
6549.132026728126
 20
3839.409764591401
 10
6439.876314525958
 20
3940.784250820027
  0
LWPOLYLINE
  5
7C
330
1F
100
AcDbEntity
  8
0
100
AcDbPolyline
 90
       20
 70
     0
 43
0.0
 10
6252.906164092943
 20
3666.549407384096
 10
6382.908019937691
 20
3857.227109153027
 10
6470.065773762297
 20
3776.356531892467
 10
6529.514332025312
 20
3673.388608544221
 10
6555.971429439378
 20
3557.472490965069
 10
6547.086236794246
 20
3438.907834891375
 10
6503.64824244834
 20
3328.229630327813
 10
6429.517102823942
 20
3235.272121453105
 10
6331.279694995843
 20
3168.294990868046
 10
6217.664843757171
 20
3133.249450549454
 10
6098.767727231141
 20
3133.249450549454
 10
5985.152875992469
 20
3168.294990868046
 10
5886.915468164254
 20
3235.272121453105
 10
5812.784328539856
 20
3328.229630327813
 10
5769.346334194066
 20
3438.907834891375
 10
5760.461141548934
 20
3557.472490965069
 10
5786.918238963
 20
3673.388608544221
 10
5846.366797226015
 20
3776.356531892467
 10
5933.524551050621
 20
3857.227109153027
 10
6063.526406895253
 20
3666.549407384096
  0
LWPOLYLINE
  5
7E
330
1F
100
AcDbEntity
  8
0
100
AcDbPolyline
 90
       14
 70
     0
 43
0.0
 10
6063.435059622745
 20
3457.67170257101
 10
6063.001405485091
 20
3348.846138085268
 10
6065.128348566592
 20
3320.464055104792
 10
6075.526563353837
 20
3293.969835916039
 10
6093.272122831084
 20
3271.717608161882
 10
6116.788256163825
 20
3255.684579930647
 10
6143.985451706336
 20
3247.295356140385
 10
6172.447119281976
 20
3247.295356140385
 10
6199.644314824487
 20
3255.684579930647
 10
6223.160448157112
 20
3271.717608161882
 10
6240.906007634359
 20
3293.969835916039
 10
6251.304222421604
 20
3320.464055104792
 10
6253.431165503222
 20
3348.846138085268
 10
6252.906164092943
 20
3480.595312974969
  0
LWPOLYLINE
  5
7F
330
1F
100
AcDbEntity
  8
0
100
AcDbPolyline
 90
        2
 70
     0
 43
0.0
 10
6063.526406895253
 20
3666.549407384096
 10
6063.435059622745
 20
3457.67170257101
  0
LWPOLYLINE
  5
80
330
1F
100
AcDbEntity
  8
0
100
AcDbPolyline
 90
        2
 70
     0
 43
0.0
 10
6252.906164092943
 20
3666.549407384096
 10
6252.906164092943
 20
3480.595312974969
  0
LWPOLYLINE
  5
81
330
1F
100
AcDbEntity
  8
0
100
AcDbPolyline
 90
        2
 70
     0
 43
0.0
 10
5876.556256462354
 20
3940.784250820027
 10
5909.318299522158
 20
4005.451266555145
  0
LWPOLYLINE
  5
82
330
1F
100
AcDbEntity
  8
0
100
AcDbPolyline
 90
        2
 70
     0
 43
0.0
 10
6439.876314525958
 20
3940.784250820027
 10
6409.318299522158
 20
4005.451266555145
  0
LWPOLYLINE
  5
83
330
1F
100
AcDbEntity
  8
0
100
AcDbPolyline
 90
        2
 70
     0
 43
0.0
 10
5684.318299522158
 20
7105.451266555145
 10
5184.318299522158
 20
7105.451266555145
  0
LWPOLYLINE
  5
84
330
1F
100
AcDbEntity
  8
0
100
AcDbPolyline
 90
        5
 70
     0
 43
0.0
 10
7134.318299522158
 20
7105.451266555145
 10
8030.764908929006
 20
7105.451266555145
 10
8237.871690115542
 20
7105.451266555145
 10
8384.318299522274
 20
7251.897875961877
 10
8384.318299522274
 20
7459.004657148413
  0
LWPOLYLINE
  5
85
330
1F
100
AcDbEntity
  8
0
100
AcDbPolyline
 90
        5
 70
     0
 43
0.0
 10
6449.214514178806
 20
10511.20647315404
 10
7345.661123585654
 20
10511.20647315404
 10
7552.76790477219
 20
10511.20647315404
 10
7699.214514178922
 20
10364.75986374731
 10
7699.214514178922
 20
10157.65308256078
  0
LWPOLYLINE
  5
86
330
1F
100
AcDbEntity
  8
0
100
AcDbPolyline
 90
        4
 70
     0
 43
0.0
 10
6449.214514178806
 20
10361.20647315404
 10
7345.661123585654
 20
10361.20647315404
 10
7549.214514178922
 20
10361.20647315404
 10
7549.214514178922
 20
10157.65308256078
  0
LWPOLYLINE
  5
87
330
1F
100
AcDbEntity
  8
0
100
AcDbPolyline
 90
        5
 70
     0
 43
0.0
 10
5184.318299522158
 20
7105.451266555145
 10
4287.871690115426
 20
7105.451266555145
 10
4080.76490892889
 20
7105.451266555145
 10
3934.318299522158
 20
7251.897875961877
 10
3934.318299522158
 20
7459.004657148413
  0
LWPOLYLINE
  5
88
330
1F
100
AcDbEntity
  8
0
100
AcDbPolyline
 90
        5
 70
     0
 43
0.0
 10
5869.318299522158
 20
10511.20647315404
 10
4972.871690115426
 20
10511.20647315404
 10
4765.76490892889
 20
10511.20647315404
 10
4619.318299522158
 20
10364.75986374731
 10
4619.318299522158
 20
10157.65308256078
  0
LWPOLYLINE
  5
89
330
1F
100
AcDbEntity
  8
0
100
AcDbPolyline
 90
        4
 70
     0
 43
0.0
 10
5869.318299522158
 20
10361.20647315404
 10
4972.871690115426
 20
10361.20647315404
 10
4769.318299522158
 20
10361.20647315404
 10
4769.318299522158
 20
10157.65308256078
  0
TEXT
  5
8A
330
1F
100
AcDbEntity
  8
0
100
AcDbText
 10
1177.841470555402
 20
1033.249450549454
 30
0.0
 40
734.2803532077291
  1
20µm
100
AcDbText
  0
LWPOLYLINE
  5
8C
330
1F
100
AcDbEntity
  8
0
100
AcDbPolyline
 90
        3
 70
     0
 43
0.0
 10
6149.318299522158
 20
7220.451266555145
 10
6049.318299522158
 20
7220.451266555145
 10
5684.318299522158
 20
7105.451266555145
  0
LWPOLYLINE
  5
8D
330
1F
100
AcDbEntity
  8
0
100
AcDbPolyline
 90
        3
 70
     0
 43
0.0
 10
6169.318299522158
 20
7220.451266555145
 10
6269.318299522158
 20
7220.451266555145
 10
6634.318299522158
 20
7105.451266555145
  0
LWPOLYLINE
  5
8E
330
1F
100
AcDbEntity
  8
0
100
AcDbPolyline
 90
        2
 70
     0
 43
0.0
 10
6169.318299522158
 20
7220.451266555145
 10
6169.318299522158
 20
7160.451266555145
  0
LWPOLYLINE
  5
8F
330
1F
100
AcDbEntity
  8
0
100
AcDbPolyline
 90
        2
 70
     0
 43
0.0
 10
6169.318299522158
 20
7160.451266555145
 10
6179.318299522158
 20
7150.451266555145
  0
LWPOLYLINE
  5
90
330
1F
100
AcDbEntity
  8
0
100
AcDbPolyline
 90
        2
 70
     0
 43
0.0
 10
6149.318299522158
 20
7220.451266555145
 10
6149.318299522158
 20
7160.451266555145
  0
LWPOLYLINE
  5
91
330
1F
100
AcDbEntity
  8
0
100
AcDbPolyline
 90
        2
 70
     0
 43
0.0
 10
6149.318299522158
 20
7160.451266555145
 10
6139.318299522158
 20
7150.451266555145
  0
LWPOLYLINE
  5
92
330
1F
100
AcDbEntity
  8
0
100
AcDbPolyline
 90
        2
 70
     0
 43
0.0
 10
6409.318299522158
 20
4005.451266555145
 10
6179.318299522158
 20
6650.451266555145
  0
LWPOLYLINE
  5
93
330
1F
100
AcDbEntity
  8
0
100
AcDbPolyline
 90
        2
 70
     0
 43
0.0
 10
5909.318299522158
 20
4005.451266555145
 10
6139.318299522158
 20
6650.451266555145
  0
LWPOLYLINE
  5
94
330
1F
100
AcDbEntity
  8
0
100
AcDbPolyline
 90
        2
 70
     0
 43
0.0
 10
6139.318299522158
 20
7150.451266555145
 10
6139.318299522158
 20
6650.451266555145
  0
LWPOLYLINE
  5
95
330
1F
100
AcDbEntity
  8
0
100
AcDbPolyline
 90
        2
 70
     0
 43
0.0
 10
6179.318299522158
 20
7150.451266555145
 10
6179.318299522158
 20
6650.451266555145
  0
LWPOLYLINE
  5
96
330
1F
100
AcDbEntity
  8
0
100
AcDbPolyline
 90
       18
 70
     0
 43
0.0
 10
6449.318299522158
 20
10885.40145429081
 10
6552.162774316384
 20
10977.24797511773
 10
6626.683907404542
 20
11106.32236386396
 10
6659.848931672983
 20
11251.62782925388
 10
6648.710989173269
 20
11400.25334302525
 10
6594.259734974592
 20
11538.99287604706
 10
6501.333401967888
 20
11655.51881196201
 10
6378.188902641181
 20
11739.47730999827
 10
6235.768166170456
 20
11783.40828915968
 10
6086.725899994257
 20
11783.40828915968
 10
5944.305163523648
 20
11739.47730999827
 10
5821.160664196941
 20
11655.51881196201
 10
5728.23433119012
 20
11538.99287604706
 10
5673.783076991444
 20
11400.25334302525
 10
5662.645134491846
 20
11251.62782925388
 10
5695.810158760287
 20
11106.32236386396
 10
5770.331291848328
 20
10977.24797511773
 10
5869.318299522158
 20
10887.22043126504
  0
LWPOLYLINE
  5
97
330
1F
100
AcDbEntity
  8
0
100
AcDbPolyline
 90
       20
 70
     0
 43
0.0
 10
6066.557154483511
 20
11150.10833232509
 10
5936.555298638879
 20
10959.4306305561
 10
5849.397544814274
 20
11040.30120781666
 10
5789.948986551259
 20
11143.26913116491
 10
5763.491889137193
 20
11259.18524874406
 10
5772.377081782324
 20
11377.74990481776
 10
5815.815076128114
 20
11488.42810938132
 10
5889.946215752512
 20
11581.38561825603
 10
5988.183623580728
 20
11648.36274884109
 10
6101.798474819399
 20
11683.40828915968
 10
6220.695591345429
 20
11683.40828915968
 10
6334.310442584101
 20
11648.36274884109
 10
6432.5478504122
 20
11581.38561825603
 10
6506.678990036598
 20
11488.42810938132
 10
6550.116984382388
 20
11377.74990481776
 10
6559.002177027636
 20
11259.18524874406
 10
6532.54507961357
 20
11143.26913116491
 10
6473.096521350439
 20
11040.30120781666
 10
6385.93876752595
 20
10959.4306305561
 10
6255.936911681201
 20
11150.10833232509
  0
LWPOLYLINE
  5
98
330
1F
100
AcDbEntity
  8
0
100
AcDbPolyline
 90
       14
 70
     0
 43
0.0
 10
6256.028258953826
 20
11358.98603713812
 10
6256.46191309148
 20
11467.81160162386
 10
6254.334970009862
 20
11496.19368460434
 10
6243.936755222618
 20
11522.68790379309
 10
6226.191195745487
 20
11544.94013154725
 10
6202.675062412745
 20
11560.97315977848
 10
6175.477866870235
 20
11569.36238356886
 10
6147.016199294594
 20
11569.36238356886
 10
6119.819003752084
 20
11560.97315977854
 10
6096.302870419342
 20
11544.94013154725
 10
6078.557310942095
 20
11522.68790379309
 10
6068.15909615485
 20
11496.19368460434
 10
6066.032153073349
 20
11467.81160162386
 10
6066.557154483511
 20
11336.06242673416
  0
LWPOLYLINE
  5
99
330
1F
100
AcDbEntity
  8
0
100
AcDbPolyline
 90
        2
 70
     0
 43
0.0
 10
6255.936911681201
 20
11150.10833232509
 10
6256.028258953826
 20
11358.98603713812
  0
LWPOLYLINE
  5
9A
330
1F
100
AcDbEntity
  8
0
100
AcDbPolyline
 90
        2
 70
     0
 43
0.0
 10
6066.557154483511
 20
11150.10833232509
 10
6066.557154483511
 20
11336.06242673416
  0
LWPOLYLINE
  5
9B
330
1F
100
AcDbEntity
  8
0
100
AcDbPolyline
 90
        2
 70
     0
 43
0.0
 10
5869.318299522158
 20
10511.20647315404
 10
5869.318299522158
 20
10571.35998063764
  0
LWPOLYLINE
  5
9C
330
1F
100
AcDbEntity
  8
0
100
AcDbPolyline
 90
        5
 70
     0
 43
0.0
 10
5854.318299522158
 20
10691.35998063764
 10
5904.318299522158
 20
10691.35998063764
 10
5904.318299522158
 20
10641.35998063764
 10
5854.318299522158
 20
10641.35998063764
 10
5854.318299522158
 20
10691.35998063764
  0
LWPOLYLINE
  5
9D
330
1F
100
AcDbEntity
  8
0
100
AcDbPolyline
 90
        5
 70
     0
 43
0.0
 10
5924.318299522158
 20
10691.35998063764
 10
5974.318299522158
 20
10691.35998063764
 10
5974.318299522158
 20
10641.35998063764
 10
5924.318299522158
 20
10641.35998063764
 10
5924.318299522158
 20
10691.35998063764
  0
LWPOLYLINE
  5
9E
330
1F
100
AcDbEntity
  8
0
100
AcDbPolyline
 90
        5
 70
     0
 43
0.0
 10
5994.318299522158
 20
10691.35998063764
 10
6044.318299522158
 20
10691.35998063764
 10
6044.318299522158
 20
10641.35998063764
 10
5994.318299522158
 20
10641.35998063764
 10
5994.318299522158
 20
10691.35998063764
  0
LWPOLYLINE
  5
9F
330
1F
100
AcDbEntity
  8
0
100
AcDbPolyline
 90
        5
 70
     0
 43
0.0
 10
6064.318299522158
 20
10691.35998063764
 10
6114.318299522158
 20
10691.35998063764
 10
6114.318299522158
 20
10641.35998063764
 10
6064.318299522158
 20
10641.35998063764
 10
6064.318299522158
 20
10691.35998063764
  0
LWPOLYLINE
  5
A0
330
1F
100
AcDbEntity
  8
0
100
AcDbPolyline
 90
        5
 70
     0
 43
0.0
 10
6134.318299522158
 20
10691.35998063764
 10
6184.318299522158
 20
10691.35998063764
 10
6184.318299522158
 20
10641.35998063764
 10
6134.318299522158
 20
10641.35998063764
 10
6134.318299522158
 20
10691.35998063764
  0
LWPOLYLINE
  5
A1
330
1F
100
AcDbEntity
  8
0
100
AcDbPolyline
 90
        5
 70
     0
 43
0.0
 10
6204.318299522158
 20
10691.35998063764
 10
6254.318299522158
 20
10691.35998063764
 10
6254.318299522158
 20
10641.35998063764
 10
6204.318299522158
 20
10641.35998063764
 10
6204.318299522158
 20
10691.35998063764
  0
LWPOLYLINE
  5
A2
330
1F
100
AcDbEntity
  8
0
100
AcDbPolyline
 90
        5
 70
     0
 43
0.0
 10
5889.318299522158
 20
10761.35998063764
 10
5939.318299522158
 20
10761.35998063764
 10
5939.318299522158
 20
10711.35998063764
 10
5889.318299522158
 20
10711.35998063764
 10
5889.318299522158
 20
10761.35998063764
  0
LWPOLYLINE
  5
A3
330
1F
100
AcDbEntity
  8
0
100
AcDbPolyline
 90
        5
 70
     0
 43
0.0
 10
5959.318299522158
 20
10761.35998063764
 10
6009.318299522158
 20
10761.35998063764
 10
6009.318299522158
 20
10711.35998063764
 10
5959.318299522158
 20
10711.35998063764
 10
5959.318299522158
 20
10761.35998063764
  0
LWPOLYLINE
  5
A4
330
1F
100
AcDbEntity
  8
0
100
AcDbPolyline
 90
        5
 70
     0
 43
0.0
 10
6029.318299522158
 20
10761.35998063764
 10
6079.318299522158
 20
10761.35998063764
 10
6079.318299522158
 20
10711.35998063764
 10
6029.318299522158
 20
10711.35998063764
 10
6029.318299522158
 20
10761.35998063764
  0
LWPOLYLINE
  5
A5
330
1F
100
AcDbEntity
  8
0
100
AcDbPolyline
 90
        5
 70
     0
 43
0.0
 10
6099.318299522158
 20
10761.35998063764
 10
6149.318299522158
 20
10761.35998063764
 10
6149.318299522158
 20
10711.35998063764
 10
6099.318299522158
 20
10711.35998063764
 10
6099.318299522158
 20
10761.35998063764
  0
LWPOLYLINE
  5
A6
330
1F
100
AcDbEntity
  8
0
100
AcDbPolyline
 90
        5
 70
     0
 43
0.0
 10
6169.318299522158
 20
10761.35998063764
 10
6219.318299522158
 20
10761.35998063764
 10
6219.318299522158
 20
10711.35998063764
 10
6169.318299522158
 20
10711.35998063764
 10
6169.318299522158
 20
10761.35998063764
  0
LWPOLYLINE
  5
A7
330
1F
100
AcDbEntity
  8
0
100
AcDbPolyline
 90
        5
 70
     0
 43
0.0
 10
5889.318299522158
 20
10621.35998063764
 10
5939.318299522158
 20
10621.35998063764
 10
5939.318299522158
 20
10571.35998063764
 10
5889.318299522158
 20
10571.35998063764
 10
5889.318299522158
 20
10621.35998063764
  0
LWPOLYLINE
  5
A8
330
1F
100
AcDbEntity
  8
0
100
AcDbPolyline
 90
        5
 70
     0
 43
0.0
 10
5959.318299522158
 20
10621.35998063764
 10
6009.318299522158
 20
10621.35998063764
 10
6009.318299522158
 20
10571.35998063764
 10
5959.318299522158
 20
10571.35998063764
 10
5959.318299522158
 20
10621.35998063764
  0
LWPOLYLINE
  5
A9
330
1F
100
AcDbEntity
  8
0
100
AcDbPolyline
 90
        5
 70
     0
 43
0.0
 10
6029.318299522158
 20
10621.35998063764
 10
6079.318299522158
 20
10621.35998063764
 10
6079.318299522158
 20
10571.35998063764
 10
6029.318299522158
 20
10571.35998063764
 10
6029.318299522158
 20
10621.35998063764
  0
LWPOLYLINE
  5
AA
330
1F
100
AcDbEntity
  8
0
100
AcDbPolyline
 90
        5
 70
     0
 43
0.0
 10
6099.318299522158
 20
10621.35998063764
 10
6149.318299522158
 20
10621.35998063764
 10
6149.318299522158
 20
10571.35998063764
 10
6099.318299522158
 20
10571.35998063764
 10
6099.318299522158
 20
10621.35998063764
  0
LWPOLYLINE
  5
AB
330
1F
100
AcDbEntity
  8
0
100
AcDbPolyline
 90
        5
 70
     0
 43
0.0
 10
6169.318299522158
 20
10621.35998063764
 10
6219.318299522158
 20
10621.35998063764
 10
6219.318299522158
 20
10571.35998063764
 10
6169.318299522158
 20
10571.35998063764
 10
6169.318299522158
 20
10621.35998063764
  0
LWPOLYLINE
  5
AC
330
1F
100
AcDbEntity
  8
0
100
AcDbPolyline
 90
        6
 70
     0
 43
0.0
 10
5869.318299522158
 20
10887.22043126504
 10
5869.318299522158
 20
10711.35998063764
 10
5834.318299522158
 20
10711.35998063764
 10
5834.318299522158
 20
10621.35998063764
 10
5869.318299522158
 20
10621.35998063764
 10
5869.318299522158
 20
10571.35998063764
  0
LWPOLYLINE
  5
AD
330
1F
100
AcDbEntity
  8
0
100
AcDbPolyline
 90
        5
 70
     0
 43
0.0
 10
6274.318299522158
 20
10691.35998063764
 10
6324.318299522158
 20
10691.35998063764
 10
6324.318299522158
 20
10641.35998063764
 10
6274.318299522158
 20
10641.35998063764
 10
6274.318299522158
 20
10691.35998063764
  0
LWPOLYLINE
  5
AE
330
1F
100
AcDbEntity
  8
0
100
AcDbPolyline
 90
        5
 70
     0
 43
0.0
 10
6344.318299522158
 20
10691.35998063764
 10
6394.318299522158
 20
10691.35998063764
 10
6394.318299522158
 20
10641.35998063764
 10
6344.318299522158
 20
10641.35998063764
 10
6344.318299522158
 20
10691.35998063764
  0
LWPOLYLINE
  5
AF
330
1F
100
AcDbEntity
  8
0
100
AcDbPolyline
 90
        5
 70
     0
 43
0.0
 10
6414.318299522158
 20
10691.35998063764
 10
6464.318299522158
 20
10691.35998063764
 10
6464.318299522158
 20
10641.35998063764
 10
6414.318299522158
 20
10641.35998063764
 10
6414.318299522158
 20
10691.35998063764
  0
LWPOLYLINE
  5
B0
330
1F
100
AcDbEntity
  8
0
100
AcDbPolyline
 90
        5
 70
     0
 43
0.0
 10
6239.318299522158
 20
10761.35998063764
 10
6289.318299522158
 20
10761.35998063764
 10
6289.318299522158
 20
10711.35998063764
 10
6239.318299522158
 20
10711.35998063764
 10
6239.318299522158
 20
10761.35998063764
  0
LWPOLYLINE
  5
B1
330
1F
100
AcDbEntity
  8
0
100
AcDbPolyline
 90
        5
 70
     0
 43
0.0
 10
6309.318299522158
 20
10761.35998063764
 10
6359.318299522158
 20
10761.35998063764
 10
6359.318299522158
 20
10711.35998063764
 10
6309.318299522158
 20
10711.35998063764
 10
6309.318299522158
 20
10761.35998063764
  0
LWPOLYLINE
  5
B2
330
1F
100
AcDbEntity
  8
0
100
AcDbPolyline
 90
        5
 70
     0
 43
0.0
 10
6379.318299522158
 20
10761.35998063764
 10
6429.318299522158
 20
10761.35998063764
 10
6429.318299522158
 20
10711.35998063764
 10
6379.318299522158
 20
10711.35998063764
 10
6379.318299522158
 20
10761.35998063764
  0
LWPOLYLINE
  5
B3
330
1F
100
AcDbEntity
  8
0
100
AcDbPolyline
 90
        5
 70
     0
 43
0.0
 10
6239.318299522158
 20
10621.35998063764
 10
6289.318299522158
 20
10621.35998063764
 10
6289.318299522158
 20
10571.35998063764
 10
6239.318299522158
 20
10571.35998063764
 10
6239.318299522158
 20
10621.35998063764
  0
LWPOLYLINE
  5
B4
330
1F
100
AcDbEntity
  8
0
100
AcDbPolyline
 90
        5
 70
     0
 43
0.0
 10
6309.318299522158
 20
10621.35998063764
 10
6359.318299522158
 20
10621.35998063764
 10
6359.318299522158
 20
10571.35998063764
 10
6309.318299522158
 20
10571.35998063764
 10
6309.318299522158
 20
10621.35998063764
  0
LWPOLYLINE
  5
B5
330
1F
100
AcDbEntity
  8
0
100
AcDbPolyline
 90
        5
 70
     0
 43
0.0
 10
6379.318299522158
 20
10621.35998063764
 10
6429.318299522158
 20
10621.35998063764
 10
6429.318299522158
 20
10571.35998063764
 10
6379.318299522158
 20
10571.35998063764
 10
6379.318299522158
 20
10621.35998063764
  0
LWPOLYLINE
  5
B6
330
1F
100
AcDbEntity
  8
0
100
AcDbPolyline
 90
        6
 70
     0
 43
0.0
 10
6449.318299522158
 20
10885.40145429081
 10
6449.318299522158
 20
10711.35998063764
 10
6484.318299522158
 20
10711.35998063764
 10
6484.318299522158
 20
10621.35998063764
 10
6449.318299522158
 20
10621.35998063764
 10
6449.318299522158
 20
10571.35998063764
  0
LWPOLYLINE
  5
B7
330
1F
100
AcDbEntity
  8
0
100
AcDbPolyline
 90
        2
 70
     0
 43
0.0
 10
6449.214514178806
 20
10511.20647315404
 10
6449.318299522158
 20
10571.35998063764
  0
LWPOLYLINE
  5
B8
330
1F
100
AcDbEntity
  8
0
100
AcDbPolyline
 90
        2
 70
     0
 43
0.0
 10
6634.318299522158
 20
13156.96167975295
 10
7134.318299522158
 20
13156.96167975295
  0
LWPOLYLINE
  5
B9
330
1F
100
AcDbEntity
  8
0
100
AcDbPolyline
 90
        2
 70
     0
 43
0.0
 10
6449.214514178806
 20
13406.96167975295
 10
7134.318299522158
 20
13406.96167975295
  0
LWPOLYLINE
  5
BA
330
1F
100
AcDbEntity
  8
0
100
AcDbPolyline
 90
        2
 70
     0
 43
0.0
 10
5869.318299522158
 20
13406.96167975295
 10
5184.318299522158
 20
13406.96167975295
  0
LWPOLYLINE
  5
BB
330
1F
100
AcDbEntity
  8
0
100
AcDbPolyline
 90
        2
 70
     0
 43
0.0
 10
5684.318299522158
 20
13156.96167975295
 10
5184.318299522158
 20
13156.96167975295
  0
LWPOLYLINE
  5
BC
330
1F
100
AcDbEntity
  8
0
100
AcDbPolyline
 90
        5
 70
     0
 43
0.0
 10
7134.318299522158
 20
13406.96167975295
 10
8030.764908929006
 20
13406.96167975295
 10
8237.871690115542
 20
13406.96167975295
 10
8384.318299522274
 20
13260.51507034621
 10
8384.318299522274
 20
13053.40828915968
  0
LWPOLYLINE
  5
BD
330
1F
100
AcDbEntity
  8
0
100
AcDbPolyline
 90
        4
 70
     0
 43
0.0
 10
7134.318299522158
 20
13156.96167975295
 10
8030.764908929006
 20
13156.96167975295
 10
8134.318299522274
 20
13156.96167975295
 10
8134.318299522274
 20
13053.40828915968
  0
LWPOLYLINE
  5
BE
330
1F
100
AcDbEntity
  8
0
100
AcDbPolyline
 90
        5
 70
     0
 43
0.0
 10
5184.318299522158
 20
13406.96167975295
 10
4287.871690115426
 20
13406.96167975295
 10
4080.76490892889
 20
13406.96167975295
 10
3934.318299522158
 20
13260.51507034621
 10
3934.318299522158
 20
13053.40828915968
  0
LWPOLYLINE
  5
BF
330
1F
100
AcDbEntity
  8
0
100
AcDbPolyline
 90
        4
 70
     0
 43
0.0
 10
5184.318299522158
 20
13156.96167975295
 10
4287.871690115426
 20
13156.96167975295
 10
4184.318299522158
 20
13156.96167975295
 10
4184.318299522158
 20
13053.40828915968
  0
LWPOLYLINE
  5
C0
330
1F
100
AcDbEntity
  8
0
100
AcDbPolyline
 90
       18
 70
     0
 43
0.0
 10
6449.318299522158
 20
13781.15666088971
 10
6552.162774316384
 20
13873.00318171663
 10
6626.683907404542
 20
14002.07757046286
 10
6659.848931672983
 20
14147.38303585278
 10
6648.710989173269
 20
14296.00854962415
 10
6594.259734974592
 20
14434.74808264597
 10
6501.333401967888
 20
14551.27401856091
 10
6378.188902641181
 20
14635.23251659717
 10
6235.768166170456
 20
14679.16349575858
 10
6086.725899994257
 20
14679.16349575858
 10
5944.305163523648
 20
14635.23251659717
 10
5821.160664196941
 20
14551.27401856091
 10
5728.23433119012
 20
14434.74808264597
 10
5673.783076991444
 20
14296.00854962415
 10
5662.645134491846
 20
14147.38303585278
 10
5695.810158760287
 20
14002.07757046286
 10
5770.331291848328
 20
13873.00318171663
 10
5869.318299522158
 20
13782.97563786394
  0
LWPOLYLINE
  5
C1
330
1F
100
AcDbEntity
  8
0
100
AcDbPolyline
 90
       20
 70
     0
 43
0.0
 10
6066.557154483511
 20
14045.86353892399
 10
5936.555298638879
 20
13855.185837155
 10
5849.397544814274
 20
13936.05641441557
 10
5789.948986551259
 20
14039.02433776381
 10
5763.491889137193
 20
14154.94045534296
 10
5772.377081782324
 20
14273.50511141666
 10
5815.815076128114
 20
14384.18331598022
 10
5889.946215752512
 20
14477.14082485493
 10
5988.183623580728
 20
14544.11795543999
 10
6101.798474819399
 20
14579.16349575858
 10
6220.695591345429
 20
14579.16349575858
 10
6334.310442584101
 20
14544.11795543999
 10
6432.5478504122
 20
14477.14082485493
 10
6506.678990036598
 20
14384.18331598022
 10
6550.116984382388
 20
14273.50511141666
 10
6559.002177027636
 20
14154.94045534296
 10
6532.54507961357
 20
14039.02433776381
 10
6473.096521350439
 20
13936.05641441557
 10
6385.93876752595
 20
13855.185837155
 10
6255.936911681201
 20
14045.86353892399
  0
LWPOLYLINE
  5
C2
330
1F
100
AcDbEntity
  8
0
100
AcDbPolyline
 90
       14
 70
     0
 43
0.0
 10
6256.028258953826
 20
14254.74124373702
 10
6256.46191309148
 20
14363.56680822276
 10
6254.334970009862
 20
14391.94889120324
 10
6243.936755222618
 20
14418.44311039199
 10
6226.191195745487
 20
14440.69533814615
 10
6202.675062412745
 20
14456.72836637739
 10
6175.477866870235
 20
14465.11759016776
 10
6147.016199294594
 20
14465.11759016776
 10
6119.819003752084
 20
14456.72836637744
 10
6096.302870419342
 20
14440.69533814615
 10
6078.557310942095
 20
14418.44311039199
 10
6068.15909615485
 20
14391.94889120324
 10
6066.032153073349
 20
14363.56680822276
 10
6066.557154483511
 20
14231.81763333306
  0
LWPOLYLINE
  5
C3
330
1F
100
AcDbEntity
  8
0
100
AcDbPolyline
 90
        2
 70
     0
 43
0.0
 10
6255.936911681201
 20
14045.86353892399
 10
6256.028258953826
 20
14254.74124373702
  0
LWPOLYLINE
  5
C4
330
1F
100
AcDbEntity
  8
0
100
AcDbPolyline
 90
        2
 70
     0
 43
0.0
 10
6066.557154483511
 20
14045.86353892399
 10
6066.557154483511
 20
14231.81763333306
  0
LWPOLYLINE
  5
C5
330
1F
100
AcDbEntity
  8
0
100
AcDbPolyline
 90
        2
 70
     0
 43
0.0
 10
5869.318299522158
 20
13406.96167975295
 10
5869.318299522158
 20
13467.11518723654
  0
LWPOLYLINE
  5
C6
330
1F
100
AcDbEntity
  8
0
100
AcDbPolyline
 90
        5
 70
     0
 43
0.0
 10
5854.318299522158
 20
13587.11518723654
 10
5904.318299522158
 20
13587.11518723654
 10
5904.318299522158
 20
13537.11518723654
 10
5854.318299522158
 20
13537.11518723654
 10
5854.318299522158
 20
13587.11518723654
  0
LWPOLYLINE
  5
C7
330
1F
100
AcDbEntity
  8
0
100
AcDbPolyline
 90
        5
 70
     0
 43
0.0
 10
5924.318299522158
 20
13587.11518723654
 10
5974.318299522158
 20
13587.11518723654
 10
5974.318299522158
 20
13537.11518723654
 10
5924.318299522158
 20
13537.11518723654
 10
5924.318299522158
 20
13587.11518723654
  0
LWPOLYLINE
  5
C8
330
1F
100
AcDbEntity
  8
0
100
AcDbPolyline
 90
        5
 70
     0
 43
0.0
 10
5994.318299522158
 20
13587.11518723654
 10
6044.318299522158
 20
13587.11518723654
 10
6044.318299522158
 20
13537.11518723654
 10
5994.318299522158
 20
13537.11518723654
 10
5994.318299522158
 20
13587.11518723654
  0
LWPOLYLINE
  5
C9
330
1F
100
AcDbEntity
  8
0
100
AcDbPolyline
 90
        5
 70
     0
 43
0.0
 10
6064.318299522158
 20
13587.11518723654
 10
6114.318299522158
 20
13587.11518723654
 10
6114.318299522158
 20
13537.11518723654
 10
6064.318299522158
 20
13537.11518723654
 10
6064.318299522158
 20
13587.11518723654
  0
LWPOLYLINE
  5
CA
330
1F
100
AcDbEntity
  8
0
100
AcDbPolyline
 90
        5
 70
     0
 43
0.0
 10
6134.318299522158
 20
13587.11518723654
 10
6184.318299522158
 20
13587.11518723654
 10
6184.318299522158
 20
13537.11518723654
 10
6134.318299522158
 20
13537.11518723654
 10
6134.318299522158
 20
13587.11518723654
  0
LWPOLYLINE
  5
CB
330
1F
100
AcDbEntity
  8
0
100
AcDbPolyline
 90
        5
 70
     0
 43
0.0
 10
6204.318299522158
 20
13587.11518723654
 10
6254.318299522158
 20
13587.11518723654
 10
6254.318299522158
 20
13537.11518723654
 10
6204.318299522158
 20
13537.11518723654
 10
6204.318299522158
 20
13587.11518723654
  0
LWPOLYLINE
  5
CC
330
1F
100
AcDbEntity
  8
0
100
AcDbPolyline
 90
        5
 70
     0
 43
0.0
 10
5889.318299522158
 20
13657.11518723654
 10
5939.318299522158
 20
13657.11518723654
 10
5939.318299522158
 20
13607.11518723654
 10
5889.318299522158
 20
13607.11518723654
 10
5889.318299522158
 20
13657.11518723654
  0
LWPOLYLINE
  5
CD
330
1F
100
AcDbEntity
  8
0
100
AcDbPolyline
 90
        5
 70
     0
 43
0.0
 10
5959.318299522158
 20
13657.11518723654
 10
6009.318299522158
 20
13657.11518723654
 10
6009.318299522158
 20
13607.11518723654
 10
5959.318299522158
 20
13607.11518723654
 10
5959.318299522158
 20
13657.11518723654
  0
LWPOLYLINE
  5
CE
330
1F
100
AcDbEntity
  8
0
100
AcDbPolyline
 90
        5
 70
     0
 43
0.0
 10
6029.318299522158
 20
13657.11518723654
 10
6079.318299522158
 20
13657.11518723654
 10
6079.318299522158
 20
13607.11518723654
 10
6029.318299522158
 20
13607.11518723654
 10
6029.318299522158
 20
13657.11518723654
  0
LWPOLYLINE
  5
CF
330
1F
100
AcDbEntity
  8
0
100
AcDbPolyline
 90
        5
 70
     0
 43
0.0
 10
6099.318299522158
 20
13657.11518723654
 10
6149.318299522158
 20
13657.11518723654
 10
6149.318299522158
 20
13607.11518723654
 10
6099.318299522158
 20
13607.11518723654
 10
6099.318299522158
 20
13657.11518723654
  0
LWPOLYLINE
  5
D0
330
1F
100
AcDbEntity
  8
0
100
AcDbPolyline
 90
        5
 70
     0
 43
0.0
 10
6169.318299522158
 20
13657.11518723654
 10
6219.318299522158
 20
13657.11518723654
 10
6219.318299522158
 20
13607.11518723654
 10
6169.318299522158
 20
13607.11518723654
 10
6169.318299522158
 20
13657.11518723654
  0
LWPOLYLINE
  5
D1
330
1F
100
AcDbEntity
  8
0
100
AcDbPolyline
 90
        5
 70
     0
 43
0.0
 10
5889.318299522158
 20
13517.11518723654
 10
5939.318299522158
 20
13517.11518723654
 10
5939.318299522158
 20
13467.11518723654
 10
5889.318299522158
 20
13467.11518723654
 10
5889.318299522158
 20
13517.11518723654
  0
LWPOLYLINE
  5
D2
330
1F
100
AcDbEntity
  8
0
100
AcDbPolyline
 90
        5
 70
     0
 43
0.0
 10
5959.318299522158
 20
13517.11518723654
 10
6009.318299522158
 20
13517.11518723654
 10
6009.318299522158
 20
13467.11518723654
 10
5959.318299522158
 20
13467.11518723654
 10
5959.318299522158
 20
13517.11518723654
  0
LWPOLYLINE
  5
D3
330
1F
100
AcDbEntity
  8
0
100
AcDbPolyline
 90
        5
 70
     0
 43
0.0
 10
6029.318299522158
 20
13517.11518723654
 10
6079.318299522158
 20
13517.11518723654
 10
6079.318299522158
 20
13467.11518723654
 10
6029.318299522158
 20
13467.11518723654
 10
6029.318299522158
 20
13517.11518723654
  0
LWPOLYLINE
  5
D4
330
1F
100
AcDbEntity
  8
0
100
AcDbPolyline
 90
        5
 70
     0
 43
0.0
 10
6099.318299522158
 20
13517.11518723654
 10
6149.318299522158
 20
13517.11518723654
 10
6149.318299522158
 20
13467.11518723654
 10
6099.318299522158
 20
13467.11518723654
 10
6099.318299522158
 20
13517.11518723654
  0
LWPOLYLINE
  5
D5
330
1F
100
AcDbEntity
  8
0
100
AcDbPolyline
 90
        5
 70
     0
 43
0.0
 10
6169.318299522158
 20
13517.11518723654
 10
6219.318299522158
 20
13517.11518723654
 10
6219.318299522158
 20
13467.11518723654
 10
6169.318299522158
 20
13467.11518723654
 10
6169.318299522158
 20
13517.11518723654
  0
LWPOLYLINE
  5
D6
330
1F
100
AcDbEntity
  8
0
100
AcDbPolyline
 90
        6
 70
     0
 43
0.0
 10
5869.318299522158
 20
13782.97563786394
 10
5869.318299522158
 20
13607.11518723654
 10
5834.318299522158
 20
13607.11518723654
 10
5834.318299522158
 20
13517.11518723654
 10
5869.318299522158
 20
13517.11518723654
 10
5869.318299522158
 20
13467.11518723654
  0
LWPOLYLINE
  5
D7
330
1F
100
AcDbEntity
  8
0
100
AcDbPolyline
 90
        5
 70
     0
 43
0.0
 10
6274.318299522158
 20
13587.11518723654
 10
6324.318299522158
 20
13587.11518723654
 10
6324.318299522158
 20
13537.11518723654
 10
6274.318299522158
 20
13537.11518723654
 10
6274.318299522158
 20
13587.11518723654
  0
LWPOLYLINE
  5
D8
330
1F
100
AcDbEntity
  8
0
100
AcDbPolyline
 90
        5
 70
     0
 43
0.0
 10
6344.318299522158
 20
13587.11518723654
 10
6394.318299522158
 20
13587.11518723654
 10
6394.318299522158
 20
13537.11518723654
 10
6344.318299522158
 20
13537.11518723654
 10
6344.318299522158
 20
13587.11518723654
  0
LWPOLYLINE
  5
D9
330
1F
100
AcDbEntity
  8
0
100
AcDbPolyline
 90
        5
 70
     0
 43
0.0
 10
6414.318299522158
 20
13587.11518723654
 10
6464.318299522158
 20
13587.11518723654
 10
6464.318299522158
 20
13537.11518723654
 10
6414.318299522158
 20
13537.11518723654
 10
6414.318299522158
 20
13587.11518723654
  0
LWPOLYLINE
  5
DA
330
1F
100
AcDbEntity
  8
0
100
AcDbPolyline
 90
        5
 70
     0
 43
0.0
 10
6239.318299522158
 20
13657.11518723654
 10
6289.318299522158
 20
13657.11518723654
 10
6289.318299522158
 20
13607.11518723654
 10
6239.318299522158
 20
13607.11518723654
 10
6239.318299522158
 20
13657.11518723654
  0
LWPOLYLINE
  5
DB
330
1F
100
AcDbEntity
  8
0
100
AcDbPolyline
 90
        5
 70
     0
 43
0.0
 10
6309.318299522158
 20
13657.11518723654
 10
6359.318299522158
 20
13657.11518723654
 10
6359.318299522158
 20
13607.11518723654
 10
6309.318299522158
 20
13607.11518723654
 10
6309.318299522158
 20
13657.11518723654
  0
LWPOLYLINE
  5
DC
330
1F
100
AcDbEntity
  8
0
100
AcDbPolyline
 90
        5
 70
     0
 43
0.0
 10
6379.318299522158
 20
13657.11518723654
 10
6429.318299522158
 20
13657.11518723654
 10
6429.318299522158
 20
13607.11518723654
 10
6379.318299522158
 20
13607.11518723654
 10
6379.318299522158
 20
13657.11518723654
  0
LWPOLYLINE
  5
DD
330
1F
100
AcDbEntity
  8
0
100
AcDbPolyline
 90
        5
 70
     0
 43
0.0
 10
6239.318299522158
 20
13517.11518723654
 10
6289.318299522158
 20
13517.11518723654
 10
6289.318299522158
 20
13467.11518723654
 10
6239.318299522158
 20
13467.11518723654
 10
6239.318299522158
 20
13517.11518723654
  0
LWPOLYLINE
  5
DE
330
1F
100
AcDbEntity
  8
0
100
AcDbPolyline
 90
        5
 70
     0
 43
0.0
 10
6309.318299522158
 20
13517.11518723654
 10
6359.318299522158
 20
13517.11518723654
 10
6359.318299522158
 20
13467.11518723654
 10
6309.318299522158
 20
13467.11518723654
 10
6309.318299522158
 20
13517.11518723654
  0
LWPOLYLINE
  5
DF
330
1F
100
AcDbEntity
  8
0
100
AcDbPolyline
 90
        5
 70
     0
 43
0.0
 10
6379.318299522158
 20
13517.11518723654
 10
6429.318299522158
 20
13517.11518723654
 10
6429.318299522158
 20
13467.11518723654
 10
6379.318299522158
 20
13467.11518723654
 10
6379.318299522158
 20
13517.11518723654
  0
LWPOLYLINE
  5
E0
330
1F
100
AcDbEntity
  8
0
100
AcDbPolyline
 90
        6
 70
     0
 43
0.0
 10
6449.318299522158
 20
13781.15666088971
 10
6449.318299522158
 20
13607.11518723654
 10
6484.318299522158
 20
13607.11518723654
 10
6484.318299522158
 20
13517.11518723654
 10
6449.318299522158
 20
13517.11518723654
 10
6449.318299522158
 20
13467.11518723654
  0
LWPOLYLINE
  5
E1
330
1F
100
AcDbEntity
  8
0
100
AcDbPolyline
 90
        2
 70
     0
 43
0.0
 10
6449.214514178806
 20
13406.96167975295
 10
6449.318299522158
 20
13467.11518723654
  0
LWPOLYLINE
  5
E2
330
1F
100
AcDbEntity
  8
0
100
AcDbPolyline
 90
        2
 70
     0
 43
0.0
 10
5684.318299522158
 20
13156.96167975295
 10
6634.318299522158
 20
13156.96167975295
  0
LWPOLYLINE
  5
E3
330
1F
100
AcDbEntity
  8
0
100
AcDbPolyline
 90
        2
 70
     0
 43
0.0
 10
3934.318299522158
 20
7459.004657148413
 10
3934.318299522158
 20
13053.40828915968
  0
LWPOLYLINE
  5
E4
330
1F
100
AcDbEntity
  8
0
100
AcDbPolyline
 90
        2
 70
     0
 43
0.0
 10
4184.318299522158
 20
7240.451266555145
 10
4184.318299522158
 20
13053.40828915968
  0
LWPOLYLINE
  5
E5
330
1F
100
AcDbEntity
  8
0
100
AcDbPolyline
 90
        2
 70
     0
 43
0.0
 10
8134.318299522274
 20
13053.40828915968
 10
8134.318299522274
 20
7240.451266555145
  0
LWPOLYLINE
  5
E6
330
1F
100
AcDbEntity
  8
0
100
AcDbPolyline
 90
        2
 70
     0
 43
0.0
 10
8384.318299522274
 20
7459.004657148413
 10
8384.318299522274
 20
13053.40828915968
  0
LWPOLYLINE
  5
E7
330
1F
100
AcDbEntity
  8
0
100
AcDbPolyline
 90
        2
 70
     0
 43
0.0
 10
5869.318299522158
 20
10361.20647315404
 10
6449.214514178806
 20
10361.20647315404
  0
LWPOLYLINE
  5
E8
330
1F
100
AcDbEntity
  8
0
100
AcDbPolyline
 90
        2
 70
     0
 43
0.0
 10
6169.318299522158
 20
7280.451266555145
 10
6169.318299522158
 20
7240.451266555145
  0
LWPOLYLINE
  5
E9
330
1F
100
AcDbEntity
  8
0
100
AcDbPolyline
 90
        2
 70
     0
 43
0.0
 10
6149.318299522158
 20
7280.451266555145
 10
6149.318299522158
 20
7240.451266555145
  0
LWPOLYLINE
  5
EA
330
1F
100
AcDbEntity
  8
0
100
AcDbPolyline
 90
        3
 70
     0
 43
0.0
 10
7667.76790477219
 20
7280.451266555145
 10
7699.214514178922
 20
7311.897875961877
 10
7699.214514178922
 20
7519.004657148413
  0
LWPOLYLINE
  5
EB
330
1F
100
AcDbEntity
  8
0
100
AcDbPolyline
 90
        3
 70
     0
 43
0.0
 10
4650.76490892889
 20
7280.451266555145
 10
4619.318299522158
 20
7311.897875961877
 10
4619.318299522158
 20
7519.004657148413
  0
LWPOLYLINE
  5
EC
330
1F
100
AcDbEntity
  8
0
100
AcDbPolyline
 90
        2
 70
     0
 43
0.0
 10
4769.318299522158
 20
10157.65308256078
 10
4769.318299522274
 20
7430.653082560777
  0
LWPOLYLINE
  5
ED
330
1F
100
AcDbEntity
  8
0
100
AcDbPolyline
 90
        2
 70
     0
 43
0.0
 10
4619.318299522158
 20
10157.65308256078
 10
4619.318299522158
 20
7519.004657148413
  0
LWPOLYLINE
  5
EE
330
1F
100
AcDbEntity
  8
0
100
AcDbPolyline
 90
        2
 70
     0
 43
0.0
 10
7549.214514178922
 20
10157.65308256078
 10
7549.214514178922
 20
7430.653082560777
  0
LWPOLYLINE
  5
EF
330
1F
100
AcDbEntity
  8
0
100
AcDbPolyline
 90
        2
 70
     0
 43
0.0
 10
7699.214514178922
 20
10157.65308256078
 10
7699.214514178922
 20
7519.004657148413
  0
LWPOLYLINE
  5
F0
330
1F
100
AcDbEntity
  8
0
100
AcDbPolyline
 90
        2
 70
     0
 43
0.0
 10
6149.318299522158
 20
7280.451266555145
 10
4650.76490892889
 20
7280.451266555145
  0
LWPOLYLINE
  5
F1
330
1F
100
AcDbEntity
  8
0
100
AcDbPolyline
 90
        3
 70
     0
 43
0.0
 10
4769.318299522274
 20
7430.653082560777
 10
6049.318299522158
 20
7300.451266555145
 10
6149.318299522158
 20
7300.451266555145
  0
LWPOLYLINE
  5
F2
330
1F
100
AcDbEntity
  8
0
100
AcDbPolyline
 90
        3
 70
     0
 43
0.0
 10
7549.214514178922
 20
7430.653082560777
 10
6269.318299522158
 20
7300.451266555145
 10
6169.318299522158
 20
7300.451266555145
  0
LWPOLYLINE
  5
F3
330
1F
100
AcDbEntity
  8
0
100
AcDbPolyline
 90
        2
 70
     0
 43
0.0
 10
6169.318299522158
 20
7280.451266555145
 10
7667.76790477219
 20
7280.451266555145
  0
LWPOLYLINE
  5
F4
330
1F
100
AcDbEntity
  8
0
100
AcDbPolyline
 90
        2
 70
     0
 43
0.0
 10
6149.318299522158
 20
7240.451266555145
 10
4184.318299522158
 20
7240.451266555145
  0
LWPOLYLINE
  5
F5
330
1F
100
AcDbEntity
  8
0
100
AcDbPolyline
 90
        2
 70
     0
 43
0.0
 10
6169.318299522158
 20
7240.451266555145
 10
8134.318299522274
 20
7240.451266555145
  0
LWPOLYLINE
  5
F6
330
1F
100
AcDbEntity
  8
0
100
AcDbPolyline
 90
        2
 70
     0
 43
0.0
 10
6169.318299522158
 20
7400.451266555145
 10
6286.48798149114
 20
8336.54239984791
  0
LWPOLYLINE
  5
F7
330
1F
100
AcDbEntity
  8
0
100
AcDbPolyline
 90
        2
 70
     0
 43
0.0
 10
6149.318299522158
 20
7400.451266555145
 10
6032.421227608691
 20
8336.54239984791
  0
LWPOLYLINE
  5
F8
330
1F
100
AcDbEntity
  8
0
100
AcDbPolyline
 90
       18
 70
     0
 43
0.0
 10
6442.080342582078
 20
8580.118282290205
 10
6551.336054784246
 20
8681.49276851883
 10
6625.857187872287
 20
8810.567157265003
 10
6659.022212140844
 20
8955.872622654977
 10
6647.88426964113
 20
9104.498136426351
 10
6593.433015442453
 20
9243.237669448165
 10
6500.506682435749
 20
9359.763605363114
 10
6377.362183109042
 20
9443.72210339937
 10
6234.941446638317
 20
9487.653082560777
 10
6085.899180462118
 20
9487.653082560777
 10
5943.478443991509
 20
9443.72210339937
 10
5820.333944664802
 20
9359.763605363114
 10
5727.407611657982
 20
9243.237669448165
 10
5672.956357459305
 20
9104.498136426351
 10
5661.818414959591
 20
8955.872622654977
 10
5694.983439228148
 20
8810.567157265003
 10
5769.504572316189
 20
8681.49276851883
 10
5878.760284518474
 20
8580.118282290205
  0
LWPOLYLINE
  5
F9
330
1F
100
AcDbEntity
  8
0
100
AcDbPolyline
 90
       20
 70
     0
 43
0.0
 10
6065.730434951372
 20
8854.353125726135
 10
5935.728579106741
 20
8663.675423957204
 10
5848.570825282135
 20
8744.546001217765
 10
5789.12226701912
 20
8847.51392456601
 10
5762.665169605054
 20
8963.43004214522
 10
5771.550362250186
 20
9081.994698218856
 10
5814.988356595975
 20
9192.672902782419
 10
5889.119496220374
 20
9285.630411657126
 10
5987.356904048589
 20
9352.607542242185
 10
6100.971755287261
 20
9387.653082560777
 10
6219.868871813291
 20
9387.653082560777
 10
6333.483723051962
 20
9352.607542242185
 10
6431.721130880062
 20
9285.630411657126
 10
6505.85227050446
 20
9192.672902782419
 10
6549.29026485025
 20
9081.994698218856
 10
6558.175457495381
 20
8963.43004214522
 10
6531.718360081315
 20
8847.51392456601
 10
6472.2698018183
 20
8744.546001217765
 10
6385.112047993811
 20
8663.675423957204
 10
6255.110192149063
 20
8854.353125726135
  0
LWPOLYLINE
  5
FA
330
1F
100
AcDbEntity
  8
0
100
AcDbPolyline
 90
       14
 70
     0
 43
0.0
 10
6255.201539421687
 20
9063.230830539222
 10
6255.635193559341
 20
9172.056395024963
 10
6253.508250477724
 20
9200.438478005439
 10
6243.110035690479
 20
9226.932697194192
 10
6225.364476213232
 20
9249.18492494835
 10
6201.848342880607
 20
9265.217953179585
 10
6174.65114733798
 20
9273.607176969905
 10
6146.189479762455
 20
9273.607176969905
 10
6118.992284219945
 20
9265.217953179643
 10
6095.476150887203
 20
9249.18492494835
 10
6077.730591409956
 20
9226.932697194192
 10
6067.332376622711
 20
9200.438478005439
 10
6065.20543354121
 20
9172.056395024963
 10
6065.730434951372
 20
9040.307220135262
  0
LWPOLYLINE
  5
FB
330
1F
100
AcDbEntity
  8
0
100
AcDbPolyline
 90
        2
 70
     0
 43
0.0
 10
6255.110192149063
 20
8854.353125726135
 10
6255.201539421687
 20
9063.230830539222
  0
LWPOLYLINE
  5
FC
330
1F
100
AcDbEntity
  8
0
100
AcDbPolyline
 90
        2
 70
     0
 43
0.0
 10
6065.730434951372
 20
8854.353125726135
 10
6065.730434951372
 20
9040.307220135262
  0
LWPOLYLINE
  5
FD
330
1F
100
AcDbEntity
  8
0
100
AcDbPolyline
 90
        2
 70
     0
 43
0.0
 10
6149.318299522158
 20
7300.451266555145
 10
6149.318299522158
 20
7400.451266555145
  0
LWPOLYLINE
  5
FE
330
1F
100
AcDbEntity
  8
0
100
AcDbPolyline
 90
        2
 70
     0
 43
0.0
 10
6169.318299522158
 20
7300.451266555145
 10
6169.318299522158
 20
7400.451266555145
  0
LWPOLYLINE
  5
FF
330
1F
100
AcDbEntity
  8
0
100
AcDbPolyline
 90
        6
 70
     0
 43
0.0
 10
6235.768166170456
 20
17179.16349575858
 10
212.1164835166419
 20
17179.16349575858
 10
212.1164835165255
 20
283.2494505494542
 10
12106.52011552791
 20
283.2494505494542
 10
12106.52011552779
 20
17179.16349575858
 10
6235.768166170456
 20
17179.16349575858
  0
LWPOLYLINE
  5
100
330
1F
100
AcDbEntity
  8
0
100
AcDbPolyline
 90
        5
 70
     1
 43
0.0
 10
6235.768166170456
 20
16929.16349575858
 10
462.1164835166419
 20
16929.16349575858
 10
462.1164835165255
 20
533.2494505494542
 10
11856.52011552791
 20
533.2494505494542
 10
11856.52011552779
 20
16929.16349575858
  0
CIRCLE
  5
101
330
1F
100
AcDbEntity
  8
0
100
AcDbCircle
 10
5949.318299522158
 20
8549.966301966546
 30
0.0
 40
20.0
  0
CIRCLE
  5
102
330
1F
100
AcDbEntity
  8
0
100
AcDbCircle
 10
6019.318299522158
 20
8549.966301966546
 30
0.0
 40
20.0
  0
CIRCLE
  5
103
330
1F
100
AcDbEntity
  8
0
100
AcDbCircle
 10
6089.318299522158
 20
8549.966301966546
 30
0.0
 40
20.0
  0
CIRCLE
  5
104
330
1F
100
AcDbEntity
  8
0
100
AcDbCircle
 10
6159.318299522158
 20
8549.966301966546
 30
0.0
 40
20.0
  0
CIRCLE
  5
105
330
1F
100
AcDbEntity
  8
0
100
AcDbCircle
 10
6229.318299522158
 20
8549.966301966546
 30
0.0
 40
20.0
  0
CIRCLE
  5
106
330
1F
100
AcDbEntity
  8
0
100
AcDbCircle
 10
6299.318299522158
 20
8549.966301966546
 30
0.0
 40
20.0
  0
CIRCLE
  5
107
330
1F
100
AcDbEntity
  8
0
100
AcDbCircle
 10
6369.318299522158
 20
8549.966301966546
 30
0.0
 40
20.0
  0
CIRCLE
  5
108
330
1F
100
AcDbEntity
  8
0
100
AcDbCircle
 10
5984.318299522158
 20
8489.966301966546
 30
0.0
 40
20.0
  0
CIRCLE
  5
109
330
1F
100
AcDbEntity
  8
0
100
AcDbCircle
 10
6054.318299522158
 20
8489.966301966546
 30
0.0
 40
20.0
  0
CIRCLE
  5
10A
330
1F
100
AcDbEntity
  8
0
100
AcDbCircle
 10
6124.318299522158
 20
8489.966301966546
 30
0.0
 40
20.0
  0
CIRCLE
  5
10B
330
1F
100
AcDbEntity
  8
0
100
AcDbCircle
 10
6194.318299522158
 20
8489.966301966546
 30
0.0
 40
20.0
  0
CIRCLE
  5
10C
330
1F
100
AcDbEntity
  8
0
100
AcDbCircle
 10
6264.318299522158
 20
8489.966301966546
 30
0.0
 40
20.0
  0
CIRCLE
  5
10D
330
1F
100
AcDbEntity
  8
0
100
AcDbCircle
 10
6334.318299522158
 20
8489.966301966546
 30
0.0
 40
20.0
  0
CIRCLE
  5
10E
330
1F
100
AcDbEntity
  8
0
100
AcDbCircle
 10
6019.318299522158
 20
8429.966301966546
 30
0.0
 40
20.0
  0
CIRCLE
  5
10F
330
1F
100
AcDbEntity
  8
0
100
AcDbCircle
 10
6089.318299522158
 20
8429.966301966546
 30
0.0
 40
20.0
  0
CIRCLE
  5
110
330
1F
100
AcDbEntity
  8
0
100
AcDbCircle
 10
6159.318299522158
 20
8429.966301966546
 30
0.0
 40
20.0
  0
CIRCLE
  5
111
330
1F
100
AcDbEntity
  8
0
100
AcDbCircle
 10
6229.318299522158
 20
8429.966301966546
 30
0.0
 40
20.0
  0
CIRCLE
  5
112
330
1F
100
AcDbEntity
  8
0
100
AcDbCircle
 10
6299.318299522158
 20
8429.966301966546
 30
0.0
 40
20.0
  0
LWPOLYLINE
  5
113
330
1F
100
AcDbEntity
  8
0
100
AcDbPolyline
 90
        4
 70
     0
 43
0.0
 10
5878.760284518474
 20
8580.118282290205
 10
5904.318299522158
 20
8554.966301966546
 10
5939.318299522158
 20
8484.966301966546
 10
6032.421227608691
 20
8336.54239984791
  0
LWPOLYLINE
  5
114
330
1F
100
AcDbEntity
  8
0
100
AcDbPolyline
 90
        4
 70
     0
 43
0.0
 10
6442.080342582078
 20
8580.118282290205
 10
6414.318299522158
 20
8554.966301966546
 10
6379.318299522158
 20
8484.966301966546
 10
6286.48798149114
 20
8336.54239984791
  0
CIRCLE
  5
115
330
1F
100
AcDbEntity
  8
0
100
AcDbCircle
 10
6054.318299522158
 20
8369.966301966546
 30
0.0
 40
20.0
  0
CIRCLE
  5
116
330
1F
100
AcDbEntity
  8
0
100
AcDbCircle
 10
6124.318299522158
 20
8369.966301966546
 30
0.0
 40
20.0
  0
CIRCLE
  5
117
330
1F
100
AcDbEntity
  8
0
100
AcDbCircle
 10
6194.318299522158
 20
8369.966301966546
 30
0.0
 40
20.0
  0
CIRCLE
  5
118
330
1F
100
AcDbEntity
  8
0
100
AcDbCircle
 10
6264.318299522158
 20
8369.966301966546
 30
0.0
 40
20.0
  0
ENDSEC
  0
SECTION
  2
OBJECTS
  0
DICTIONARY
  5
C
330
0
100
AcDbDictionary
281
     1
  3
ACAD_GROUP
350
D
  3
ACAD_IMAGE_VARS
350
6A
  3
ACAD_LAYOUT
350
1A
  3
ACAD_MLINESTYLE
350
17
  3
ACAD_PLOTSETTINGS
350
19
  3
ACAD_PLOTSTYLENAME
350
E
  3
ACAD_SCALELIST
350
40
  3
AcDbVariableDictionary
350
3D
  3
APPDATA
350
71
  0
DICTIONARY
  5
D
102
{ACAD_REACTORS
330
C
102
}
330
C
100
AcDbDictionary
281
     1
  0
RASTERVARIABLES
  5
6A
102
{ACAD_REACTORS
330
C
102
}
330
C
100
AcDbRasterVariables
 90
        0
 70
     1
 71
     1
 72
     1
  0
DICTIONARY
  5
1A
102
{ACAD_REACTORS
330
C
102
}
330
C
100
AcDbDictionary
281
     1
  3
Model
350
22
  3
Sheet1
350
1E
  3
Sheet2
350
26
  0
DICTIONARY
  5
17
102
{ACAD_REACTORS
330
C
102
}
330
C
100
AcDbDictionary
281
     1
  3
Standard
350
18
  0
DICTIONARY
  5
19
102
{ACAD_REACTORS
330
C
102
}
330
C
100
AcDbDictionary
281
     1
  0
ACDBDICTIONARYWDFLT
  5
E
102
{ACAD_REACTORS
330
C
102
}
330
C
100
AcDbDictionary
281
     1
  3
Normal
350
F
100
AcDbDictionaryWithDefault
340
F
  0
DICTIONARY
  5
40
102
{ACAD_REACTORS
330
C
102
}
330
C
100
AcDbDictionary
281
     1
  3
A0
350
41
  3
A1
350
42
  3
A2
350
43
  3
A3
350
44
  3
A4
350
45
  3
A5
350
46
  3
A6
350
47
  3
A7
350
48
  3
A8
350
49
  3
A9
350
4A
  3
B0
350
4B
  3
B1
350
4C
  3
B2
350
4D
  3
B3
350
4E
  3
B4
350
4F
  3
B5
350
50
  3
B6
350
51
  3
B7
350
52
  3
B8
350
53
  3
B9
350
54
  3
C0
350
55
  3
C1
350
56
  3
C2
350
57
  3
C3
350
58
  3
C4
350
59
  3
C5
350
5A
  3
C6
350
5B
  3
C7
350
5C
  3
C8
350
5D
  3
C9
350
5E
  3
D0
350
5F
  3
D1
350
60
  3
D2
350
61
  0
DICTIONARY
  5
3D
102
{ACAD_REACTORS
330
C
102
}
330
C
100
AcDbDictionary
281
     1
  3
CANNOSCALE
350
11B
  3
XCLIPFRAME
350
70
  3
CANNOSCALE
350
11A
  0
DICTIONARY
  5
71
102
{ACAD_REACTORS
330
C
102
}
330
C
100
AcDbDictionary
281
     1
  0
LAYOUT
  5
22
102
{ACAD_REACTORS
330
1A
102
}
330
1A
100
AcDbPlotSettings
  1

  2
none_device
  4
ISO_A3_(420.00_x_297.00_MM)
  6

 40
7.5
 41
20.0
 42
7.5
 43
20.0
 44
420.0
 45
297.0
 46
20.78282828282826
 47
0.0
 48
0.0
 49
0.0
140
0.0
141
0.0
142
1.0
143
1.155642023346303
 70
  1204
 72
     1
 73
     0
 74
     1
  7
monochrome.ctb
 75
     0
147
0.8653198653198654
148
-134.1869158878504
149
0.0
100
AcDbLayout
  1
Model
 70
     1
 71
     0
 10
0.0
 20
0.0
 11
420.0
 21
297.0
 12
0.0
 22
0.0
 32
0.0
 14
1.000000000000000E+20
 24
1.000000000000000E+20
 34
1.000000000000000E+20
 15
-1.000000000000000E+20
 25
-1.000000000000000E+20
 35
-1.000000000000000E+20
146
0.0
 13
0.0
 23
0.0
 33
0.0
 16
1.0
 26
0.0
 36
0.0
 17
0.0
 27
1.0
 37
0.0
 76
     0
330
1F
331
29
  0
LAYOUT
  5
1E
102
{ACAD_REACTORS
330
1A
102
}
330
1A
100
AcDbPlotSettings
  1

  2
none_device
  4

  6

 40
0.0
 41
0.0
 42
0.0
 43
0.0
 44
0.0
 45
0.0
 46
0.0
 47
0.0
 48
0.0
 49
0.0
140
0.0
141
0.0
142
1.0
143
1.0
 70
   688
 72
     0
 73
     0
 74
     5
  7

 75
    16
147
1.0
148
0.0
149
0.0
100
AcDbLayout
  1
Sheet1
 70
     1
 71
     1
 10
0.0
 20
0.0
 11
420.0
 21
297.0
 12
0.0
 22
0.0
 32
0.0
 14
1.000000000000000E+20
 24
1.000000000000000E+20
 34
1.000000000000000E+20
 15
-1.000000000000000E+20
 25
-1.000000000000000E+20
 35
-1.000000000000000E+20
146
0.0
 13
0.0
 23
0.0
 33
0.0
 16
1.0
 26
0.0
 36
0.0
 17
0.0
 27
1.0
 37
0.0
 76
     0
330
1B
  0
LAYOUT
  5
26
102
{ACAD_REACTORS
330
1A
102
}
330
1A
100
AcDbPlotSettings
  1

  2
none_device
  4

  6

 40
0.0
 41
0.0
 42
0.0
 43
0.0
 44
0.0
 45
0.0
 46
0.0
 47
0.0
 48
0.0
 49
0.0
140
0.0
141
0.0
142
1.0
143
1.0
 70
   688
 72
     0
 73
     0
 74
     5
  7

 75
    16
147
1.0
148
0.0
149
0.0
100
AcDbLayout
  1
Sheet2
 70
     1
 71
     2
 10
0.0
 20
0.0
 11
0.0
 21
0.0
 12
0.0
 22
0.0
 32
0.0
 14
0.0
 24
0.0
 34
0.0
 15
0.0
 25
0.0
 35
0.0
146
0.0
 13
0.0
 23
0.0
 33
0.0
 16
1.0
 26
0.0
 36
0.0
 17
0.0
 27
1.0
 37
0.0
 76
     0
330
23
  0
MLINESTYLE
  5
18
102
{ACAD_REACTORS
330
17
102
}
330
17
100
AcDbMlineStyle
  2
Standard
 70
     0
  3

 62
   256
 51
90.0
 52
90.0
 71
     2
 49
0.5
 62
   256
  6
BYLAYER
 49
-0.5
 62
   256
  6
BYLAYER
  0
ACDBPLACEHOLDER
  5
F
102
{ACAD_REACTORS
330
E
102
}
330
E
  0
SCALE
  5
41
102
{ACAD_REACTORS
330
40
102
}
330
40
100
AcDbScale
 70
     0
300
1:1
140
1.0
141
1.0
290
     1
  0
SCALE
  5
42
102
{ACAD_REACTORS
330
40
102
}
330
40
100
AcDbScale
 70
     0
300
1:2
140
1.0
141
2.0
290
     0
  0
SCALE
  5
43
102
{ACAD_REACTORS
330
40
102
}
330
40
100
AcDbScale
 70
     0
300
1:4
140
1.0
141
4.0
290
     0
  0
SCALE
  5
44
102
{ACAD_REACTORS
330
40
102
}
330
40
100
AcDbScale
 70
     0
300
1:5
140
1.0
141
5.0
290
     0
  0
SCALE
  5
45
102
{ACAD_REACTORS
330
40
102
}
330
40
100
AcDbScale
 70
     0
300
1:8
140
1.0
141
8.0
290
     0
  0
SCALE
  5
46
102
{ACAD_REACTORS
330
40
102
}
330
40
100
AcDbScale
 70
     0
300
1:10
140
1.0
141
10.0
290
     0
  0
SCALE
  5
47
102
{ACAD_REACTORS
330
40
102
}
330
40
100
AcDbScale
 70
     0
300
1:16
140
1.0
141
16.0
290
     0
  0
SCALE
  5
48
102
{ACAD_REACTORS
330
40
102
}
330
40
100
AcDbScale
 70
     0
300
1:20
140
1.0
141
20.0
290
     0
  0
SCALE
  5
49
102
{ACAD_REACTORS
330
40
102
}
330
40
100
AcDbScale
 70
     0
300
1:30
140
1.0
141
30.0
290
     0
  0
SCALE
  5
4A
102
{ACAD_REACTORS
330
40
102
}
330
40
100
AcDbScale
 70
     0
300
1:40
140
1.0
141
40.0
290
     0
  0
SCALE
  5
4B
102
{ACAD_REACTORS
330
40
102
}
330
40
100
AcDbScale
 70
     0
300
1:50
140
1.0
141
50.0
290
     0
  0
SCALE
  5
4C
102
{ACAD_REACTORS
330
40
102
}
330
40
100
AcDbScale
 70
     0
300
1:100
140
1.0
141
100.0
290
     0
  0
SCALE
  5
4D
102
{ACAD_REACTORS
330
40
102
}
330
40
100
AcDbScale
 70
     0
300
2:1
140
2.0
141
1.0
290
     0
  0
SCALE
  5
4E
102
{ACAD_REACTORS
330
40
102
}
330
40
100
AcDbScale
 70
     0
300
4:1
140
4.0
141
1.0
290
     0
  0
SCALE
  5
4F
102
{ACAD_REACTORS
330
40
102
}
330
40
100
AcDbScale
 70
     0
300
8:1
140
8.0
141
1.0
290
     0
  0
SCALE
  5
50
102
{ACAD_REACTORS
330
40
102
}
330
40
100
AcDbScale
 70
     0
300
10:1
140
10.0
141
1.0
290
     0
  0
SCALE
  5
51
102
{ACAD_REACTORS
330
40
102
}
330
40
100
AcDbScale
 70
     0
300
100:1
140
100.0
141
1.0
290
     0
  0
SCALE
  5
52
102
{ACAD_REACTORS
330
40
102
}
330
40
100
AcDbScale
 70
     0
300
1/128" = 1'-0"
140
0.0078125
141
12.0
290
     0
  0
SCALE
  5
53
102
{ACAD_REACTORS
330
40
102
}
330
40
100
AcDbScale
 70
     0
300
1/64" = 1'-0"
140
0.015625
141
12.0
290
     0
  0
SCALE
  5
54
102
{ACAD_REACTORS
330
40
102
}
330
40
100
AcDbScale
 70
     0
300
1/32" = 1'-0"
140
0.03125
141
12.0
290
     0
  0
SCALE
  5
55
102
{ACAD_REACTORS
330
40
102
}
330
40
100
AcDbScale
 70
     0
300
1/16" = 1'-0"
140
0.0625
141
12.0
290
     0
  0
SCALE
  5
56
102
{ACAD_REACTORS
330
40
102
}
330
40
100
AcDbScale
 70
     0
300
3/32" = 1'-0"
140
0.09375
141
12.0
290
     0
  0
SCALE
  5
57
102
{ACAD_REACTORS
330
40
102
}
330
40
100
AcDbScale
 70
     0
300
1/8" = 1'-0"
140
0.125
141
12.0
290
     0
  0
SCALE
  5
58
102
{ACAD_REACTORS
330
40
102
}
330
40
100
AcDbScale
 70
     0
300
3/16" = 1'-0"
140
0.1875
141
12.0
290
     0
  0
SCALE
  5
59
102
{ACAD_REACTORS
330
40
102
}
330
40
100
AcDbScale
 70
     0
300
1/4" = 1'-0"
140
0.25
141
12.0
290
     0
  0
SCALE
  5
5A
102
{ACAD_REACTORS
330
40
102
}
330
40
100
AcDbScale
 70
     0
300
3/8" = 1'-0"
140
0.375
141
12.0
290
     0
  0
SCALE
  5
5B
102
{ACAD_REACTORS
330
40
102
}
330
40
100
AcDbScale
 70
     0
300
1/2" = 1'-0"
140
0.5
141
12.0
290
     0
  0
SCALE
  5
5C
102
{ACAD_REACTORS
330
40
102
}
330
40
100
AcDbScale
 70
     0
300
3/4" = 1'-0"
140
0.75
141
12.0
290
     0
  0
SCALE
  5
5D
102
{ACAD_REACTORS
330
40
102
}
330
40
100
AcDbScale
 70
     0
300
1" = 1'-0"
140
1.0
141
12.0
290
     0
  0
SCALE
  5
5E
102
{ACAD_REACTORS
330
40
102
}
330
40
100
AcDbScale
 70
     0
300
1-1/2" = 1'-0"
140
1.5
141
12.0
290
     0
  0
SCALE
  5
5F
102
{ACAD_REACTORS
330
40
102
}
330
40
100
AcDbScale
 70
     0
300
3" = 1'-0"
140
3.0
141
12.0
290
     0
  0
SCALE
  5
60
102
{ACAD_REACTORS
330
40
102
}
330
40
100
AcDbScale
 70
     0
300
6" = 1'-0"
140
6.0
141
12.0
290
     0
  0
SCALE
  5
61
102
{ACAD_REACTORS
330
40
102
}
330
40
100
AcDbScale
 70
     0
300
1'-0" = 1'-0"
140
12.0
141
12.0
290
     0
  0
DICTIONARYVAR
  5
11B
102
{ACAD_REACTORS
330
3D
102
}
330
3D
100
DictionaryVariables
280
     0
  1
1:1
  0
DICTIONARYVAR
  5
70
102
{ACAD_REACTORS
330
3D
102
}
330
3D
100
DictionaryVariables
280
     0
  1
0
  0
DICTIONARYVAR
  5
11A
102
{ACAD_REACTORS
330
3D
102
}
330
3D
100
DictionaryVariables
280
     0
  1
1:1
  0
ENDSEC
  0
EOF
