  0
SECTION
  2
HEADER
  9
$ACADVER
  1
AC1015
  9
$ACADMAINTVER
 70
     6
  9
$DWGCODEPAGE
  3
ANSI_1251
  9
$INSBASE
 10
0.0
 20
0.0
 30
0.0
  9
$EXTMIN
 10
1.000000000000000E+20
 20
1.000000000000000E+20
 30
1.000000000000000E+20
  9
$EXTMAX
 10
-1.000000000000000E+20
 20
-1.000000000000000E+20
 30
-1.000000000000000E+20
  9
$LIMMIN
 10
0.0
 20
0.0
  9
$LIMMAX
 10
420.0
 20
297.0
  9
$ORTHOMODE
 70
     0
  9
$REGENMODE
 70
     1
  9
$FILLMODE
 70
     1
  9
$QTEXTMODE
 70
     0
  9
$MIRRTEXT
 70
     0
  9
$LTSCALE
 40
1.0
  9
$ATTMODE
 70
     1
  9
$TEXTSIZE
 40
2.5
  9
$TRACEWID
 40
1.0
  9
$TEXTSTYLE
  7
Standard
  9
$CLAYER
  8
0
  9
$CELTYPE
  6
ByLayer
  9
$CECOLOR
 62
   256
  9
$CELTSCALE
 40
1.0
  9
$DISPSILH
 70
     0
  9
$DIMSCALE
 40
1.0
  9
$DIMASZ
 40
2.5
  9
$DIMEXO
 40
0.625
  9
$DIMDLI
 40
3.75
  9
$DIMRND
 40
0.0
  9
$DIMDLE
 40
0.0
  9
$DIMEXE
 40
1.25
  9
$DIMTP
 40
0.0
  9
$DIMTM
 40
0.0
  9
$DIMTXT
 40
2.5
  9
$DIMCEN
 40
2.5
  9
$DIMTSZ
 40
0.0
  9
$DIMTOL
 70
     0
  9
$DIMLIM
 70
     0
  9
$DIMTIH
 70
     0
  9
$DIMTOH
 70
     0
  9
$DIMSE1
 70
     0
  9
$DIMSE2
 70
     0
  9
$DIMTAD
 70
     1
  9
$DIMZIN
 70
     8
  9
$DIMBLK
  1

  9
$DIMASO
 70
     1
  9
$DIMSHO
 70
     1
  9
$DIMPOST
  1

  9
$DIMAPOST
  1

  9
$DIMALT
 70
     0
  9
$DIMALTD
 70
     3
  9
$DIMALTF
 40
0.03937007874016
  9
$DIMLFAC
 40
1.0
  9
$DIMTOFL
 70
     1
  9
$DIMTVP
 40
0.0
  9
$DIMTIX
 70
     0
  9
$DIMSOXD
 70
     0
  9
$DIMSAH
 70
     0
  9
$DIMBLK1
  1

  9
$DIMBLK2
  1

  9
$DIMSTYLE
  2
ISO-25
  9
$DIMCLRD
 70
     0
  9
$DIMCLRE
 70
     0
  9
$DIMCLRT
 70
     0
  9
$DIMTFAC
 40
1.0
  9
$DIMGAP
 40
0.625
  9
$DIMJUST
 70
     0
  9
$DIMSD1
 70
     0
  9
$DIMSD2
 70
     0
  9
$DIMTOLJ
 70
     0
  9
$DIMTZIN
 70
     8
  9
$DIMALTZ
 70
     0
  9
$DIMALTTZ
 70
     0
  9
$DIMUPT
 70
     0
  9
$DIMDEC
 70
     2
  9
$DIMTDEC
 70
     2
  9
$DIMALTU
 70
     2
  9
$DIMALTTD
 70
     3
  9
$DIMTXSTY
  7
Standard
  9
$DIMAUNIT
 70
     0
  9
$DIMADEC
 70
     0
  9
$DIMALTRND
 40
0.0
  9
$DIMAZIN
 70
     0
  9
$DIMDSEP
 70
    44
  9
$DIMATFIT
 70
     3
  9
$DIMFRAC
 70
     0
  9
$DIMLDRBLK
  1

  9
$DIMLUNIT
 70
     2
  9
$DIMLWD
 70
    -2
  9
$DIMLWE
 70
    -2
  9
$DIMTMOVE
 70
     0
  9
$LUNITS
 70
     2
  9
$LUPREC
 70
     3
  9
$SKETCHINC
 40
1.0
  9
$FILLETRAD
 40
10.0
  9
$AUNITS
 70
     0
  9
$AUPREC
 70
     0
  9
$MENU
  1
.
  9
$ELEVATION
 40
0.0
  9
$PELEVATION
 40
0.0
  9
$THICKNESS
 40
0.0
  9
$LIMCHECK
 70
     0
  9
$CHAMFERA
 40
10.0
  9
$CHAMFERB
 40
10.0
  9
$CHAMFERC
 40
20.0
  9
$CHAMFERD
 40
0.0
  9
$SKPOLY
 70
     0
  9
$TDCREATE
 40
2455022.637359514
  9
$TDUCREATE
 40
2455022.637359514
  9
$TDUPDATE
 40
2456253.656521493
  9
$TDUUPDATE
 40
2456253.656521493
  9
$TDINDWG
 40
0.0000000116
  9
$TDUSRTIMER
 40
2456253.656327743
  9
$USRTIMER
 70
     1
  9
$ANGBASE
 50
0.0
  9
$ANGDIR
 70
     0
  9
$PDMODE
 70
     0
  9
$PDSIZE
 40
0.0
  9
$PLINEWID
 40
0.0
  9
$SPLFRAME
 70
     0
  9
$SPLINETYPE
 70
     6
  9
$SPLINESEGS
 70
     8
  9
$HANDSEED
  5
129
  9
$SURFTAB1
 70
     6
  9
$SURFTAB2
 70
     6
  9
$SURFTYPE
 70
     6
  9
$SURFU
 70
     6
  9
$SURFV
 70
     6
  9
$UCSBASE
  2

  9
$UCSNAME
  2

  9
$UCSORG
 10
0.0
 20
0.0
 30
0.0
  9
$UCSXDIR
 10
1.0
 20
0.0
 30
0.0
  9
$UCSYDIR
 10
0.0
 20
1.0
 30
0.0
  9
$UCSORTHOREF
  2

  9
$UCSORTHOVIEW
 70
     0
  9
$UCSORGTOP
 10
0.0
 20
0.0
 30
0.0
  9
$UCSORGBOTTOM
 10
0.0
 20
0.0
 30
0.0
  9
$UCSORGLEFT
 10
0.0
 20
0.0
 30
0.0
  9
$UCSORGRIGHT
 10
0.0
 20
0.0
 30
0.0
  9
$UCSORGFRONT
 10
0.0
 20
0.0
 30
0.0
  9
$UCSORGBACK
 10
0.0
 20
0.0
 30
0.0
  9
$PUCSBASE
  2

  9
$PUCSNAME
  2

  9
$PUCSORG
 10
0.0
 20
0.0
 30
0.0
  9
$PUCSXDIR
 10
1.0
 20
0.0
 30
0.0
  9
$PUCSYDIR
 10
0.0
 20
1.0
 30
0.0
  9
$PUCSORTHOREF
  2

  9
$PUCSORTHOVIEW
 70
     0
  9
$PUCSORGTOP
 10
0.0
 20
0.0
 30
0.0
  9
$PUCSORGBOTTOM
 10
0.0
 20
0.0
 30
0.0
  9
$PUCSORGLEFT
 10
0.0
 20
0.0
 30
0.0
  9
$PUCSORGRIGHT
 10
0.0
 20
0.0
 30
0.0
  9
$PUCSORGFRONT
 10
0.0
 20
0.0
 30
0.0
  9
$PUCSORGBACK
 10
0.0
 20
0.0
 30
0.0
  9
$USERI1
 70
     0
  9
$USERI2
 70
     0
  9
$USERI3
 70
     0
  9
$USERI4
 70
     0
  9
$USERI5
 70
     0
  9
$USERR1
 40
0.0
  9
$USERR2
 40
0.0
  9
$USERR3
 40
0.0
  9
$USERR4
 40
0.0
  9
$USERR5
 40
0.0
  9
$WORLDVIEW
 70
     1
  9
$SHADEDGE
 70
     3
  9
$SHADEDIF
 70
    70
  9
$TILEMODE
 70
     1
  9
$MAXACTVP
 70
    64
  9
$PINSBASE
 10
0.0
 20
0.0
 30
0.0
  9
$PLIMCHECK
 70
     0
  9
$PEXTMIN
 10
1.000000000000000E+20
 20
1.000000000000000E+20
 30
1.000000000000000E+20
  9
$PEXTMAX
 10
-1.000000000000000E+20
 20
-1.000000000000000E+20
 30
-1.000000000000000E+20
  9
$PLIMMIN
 10
0.0
 20
0.0
  9
$PLIMMAX
 10
420.0
 20
297.0
  9
$UNITMODE
 70
     0
  9
$VISRETAIN
 70
     1
  9
$PLINEGEN
 70
     0
  9
$PSLTSCALE
 70
     1
  9
$TREEDEPTH
 70
  3020
  9
$CMLSTYLE
  2
Standard
  9
$CMLJUST
 70
     0
  9
$CMLSCALE
 40
20.0
  9
$PROXYGRAPHICS
 70
     1
  9
$MEASUREMENT
 70
     1
  9
$CELWEIGHT
370
    -1
  9
$ENDCAPS
280
     0
  9
$JOINSTYLE
280
     0
  9
$LWDISPLAY
290
     0
  9
$INSUNITS
 70
     4
  9
$HYPERLINKBASE
  1

  9
$STYLESHEET
  1

  9
$XEDIT
290
     1
  9
$CEPSNTYPE
380
     0
  9
$PSTYLEMODE
290
     1
  9
$FINGERPRINTGUID
  2
{EC6BB858-51AA-46EC-B484-6C9CC7AB3E2E}
  9
$VERSIONGUID
  2
{FAEB1C32-E019-11D5-929B-00C0DF256EC4}
  9
$EXTNAMES
290
     1
  9
$PSVPSCALE
 40
0.0
  9
$OLESTARTUP
290
     0
  0
ENDSEC
  0
SECTION
  2
CLASSES
  0
CLASS
  1
ACDBDICTIONARYWDFLT
  2
AcDbDictionaryWithDefault
  3
ObjectDBX Classes
 90
        0
280
     0
281
     0
  0
CLASS
  1
VISUALSTYLE
  2
AcDbVisualStyle
  3
ObjectDBX Classes
 90
     4095
280
     0
281
     0
  0
CLASS
  1
TABLESTYLE
  2
AcDbTableStyle
  3
ObjectDBX Classes
 90
     4095
280
     0
281
     0
  0
CLASS
  1
DICTIONARYVAR
  2
AcDbDictionaryVar
  3
ObjectDBX Classes
 90
        0
280
     0
281
     0
  0
CLASS
  1
SCALE
  2
AcDbScale
  3
ObjectDBX Classes
 90
     1153
280
     0
281
     0
  0
CLASS
  1
CELLSTYLEMAP
  2
AcDbCellStyleMap
  3
ObjectDBX Classes
 90
     1152
280
     0
281
     0
  0
CLASS
  1
RASTERVARIABLES
  2
AcDbRasterVariables
  3
ISM
 90
        0
280
     0
281
     0
  0
CLASS
  1
MATERIAL
  2
AcDbMaterial
  3
ObjectDBX Classes
 90
     1153
280
     0
281
     0
  0
CLASS
  1
ACDBPLACEHOLDER
  2
AcDbPlaceHolder
  3
ObjectDBX Classes
 90
        0
280
     0
281
     0
  0
CLASS
  1
LAYOUT
  2
AcDbLayout
  3
ObjectDBX Classes
 90
        0
280
     0
281
     0
  0
ENDSEC
  0
SECTION
  2
TABLES
  0
TABLE
  2
VPORT
  5
8
330
0
100
AcDbSymbolTable
 70
     1
  0
VPORT
  5
29
330
8
100
AcDbSymbolTableRecord
100
AcDbViewportTableRecord
  2
*Active
 70
     0
 10
0.0
 20
0.0
 11
1.0
 21
1.0
 12
15968.80764865124
 22
11065.47277231637
 13
0.0
 23
0.0
 14
10.0
 24
10.0
 15
10.0
 25
10.0
 16
0.0
 26
0.0
 36
1.0
 17
-134.1869158878508
 27
0.0
 37
0.0
 40
26728.61931785064
 41
2.248421052631579
 42
50.0
 43
0.0
 44
0.0
 50
0.0
 51
0.0
 71
    16
 72
  1000
 73
     1
 74
     3
 75
     0
 76
     0
 77
     0
 78
     0
281
     0
 65
     1
110
0.0
120
0.0
130
0.0
111
1.0
121
0.0
131
0.0
112
0.0
122
1.0
132
0.0
 79
     0
146
0.0
  0
ENDTAB
  0
TABLE
  2
LTYPE
  5
5
330
0
100
AcDbSymbolTable
 70
     1
  0
LTYPE
  5
14
330
5
100
AcDbSymbolTableRecord
100
AcDbLinetypeTableRecord
  2
ByBlock
 70
     0
  3

 72
    65
 73
     0
 40
0.0
  0
LTYPE
  5
15
330
5
100
AcDbSymbolTableRecord
100
AcDbLinetypeTableRecord
  2
ByLayer
 70
     0
  3

 72
    65
 73
     0
 40
0.0
  0
LTYPE
  5
16
330
5
100
AcDbSymbolTableRecord
100
AcDbLinetypeTableRecord
  2
Continuous
 70
     0
  3
Solid line
 72
    65
 73
     0
 40
0.0
  0
ENDTAB
  0
TABLE
  2
LAYER
  5
2
330
0
100
AcDbSymbolTable
 70
     3
  0
LAYER
  5
10
330
2
100
AcDbSymbolTableRecord
100
AcDbLayerTableRecord
  2
0
 70
     0
 62
     7
  6
Continuous
370
    -3
390
F
  0
LAYER
  5
77
330
2
100
AcDbSymbolTableRecord
100
AcDbLayerTableRecord
  2
fluid
 70
     0
 62
     4
  6
Continuous
370
    -3
390
F
1001
AcAecLayerStandard
1000

1000

  0
LAYER
  5
82
330
2
100
AcDbSymbolTableRecord
100
AcDbLayerTableRecord
  2
insets
 70
     0
 62
    30
  6
Continuous
370
    -3
390
F
1001
AcAecLayerStandard
1000

1000

  0
ENDTAB
  0
TABLE
  2
STYLE
  5
3
330
0
100
AcDbSymbolTable
 70
     1
  0
STYLE
  5
11
330
3
100
AcDbSymbolTableRecord
100
AcDbTextStyleTableRecord
  2
Standard
 70
     0
 40
0.0
 41
1.0
 50
0.0
 71
     0
 42
2.5
  3
txt
  4

  0
ENDTAB
  0
TABLE
  2
VIEW
  5
6
330
0
100
AcDbSymbolTable
 70
     0
  0
ENDTAB
  0
TABLE
  2
UCS
  5
7
330
0
100
AcDbSymbolTable
 70
     0
  0
ENDTAB
  0
TABLE
  2
APPID
  5
9
330
0
100
AcDbSymbolTable
 70
     2
  0
APPID
  5
12
330
9
100
AcDbSymbolTableRecord
100
AcDbRegAppTableRecord
  2
ACAD
 70
     0
  0
APPID
  5
79
330
9
100
AcDbSymbolTableRecord
100
AcDbRegAppTableRecord
  2
AcAecLayerStandard
 70
     0
  0
ENDTAB
  0
TABLE
  2
DIMSTYLE
  5
A
330
0
100
AcDbSymbolTable
 70
     1
100
AcDbDimStyleTable
  0
DIMSTYLE
105
27
330
A
100
AcDbSymbolTableRecord
100
AcDbDimStyleTableRecord
  2
ISO-25
 70
     0
 41
2.5
 42
0.625
 43
3.75
 44
1.25
 73
     0
 74
     0
 77
     1
 78
     8
140
2.5
141
2.5
143
0.03937007874016
147
0.625
171
     3
172
     1
178
     0
271
     2
272
     2
274
     3
278
    44
283
     0
284
     8
340
11
  0
ENDTAB
  0
TABLE
  2
BLOCK_RECORD
  5
1
330
0
100
AcDbSymbolTable
 70
     1
  0
BLOCK_RECORD
  5
1F
330
1
100
AcDbSymbolTableRecord
100
AcDbBlockTableRecord
  2
*Model_Space
340
22
  0
BLOCK_RECORD
  5
1B
330
1
100
AcDbSymbolTableRecord
100
AcDbBlockTableRecord
  2
*Paper_Space
340
1E
  0
BLOCK_RECORD
  5
23
330
1
100
AcDbSymbolTableRecord
100
AcDbBlockTableRecord
  2
*Paper_Space0
340
26
  0
ENDTAB
  0
ENDSEC
  0
SECTION
  2
BLOCKS
  0
BLOCK
  5
20
330
1F
100
AcDbEntity
  8
0
100
AcDbBlockBegin
  2
*Model_Space
 70
     0
 10
0.0
 20
0.0
 30
0.0
  3
*Model_Space
  1

  0
ENDBLK
  5
21
330
1F
100
AcDbEntity
  8
0
100
AcDbBlockEnd
  0
BLOCK
  5
1C
330
1B
100
AcDbEntity
 67
     1
  8
0
100
AcDbBlockBegin
  2
*Paper_Space
 70
     0
 10
0.0
 20
0.0
 30
0.0
  3
*Paper_Space
  1

  0
ENDBLK
  5
1D
330
1B
100
AcDbEntity
 67
     1
  8
0
100
AcDbBlockEnd
  0
BLOCK
  5
24
330
23
100
AcDbEntity
  8
0
100
AcDbBlockBegin
  2
*Paper_Space0
 70
     0
 10
0.0
 20
0.0
 30
0.0
  3
*Paper_Space0
  1

  0
ENDBLK
  5
25
330
23
100
AcDbEntity
  8
0
100
AcDbBlockEnd
  0
ENDSEC
  0
SECTION
  2
ENTITIES
  0
LWPOLYLINE
  5
76
330
1F
100
AcDbEntity
  8
0
100
AcDbPolyline
 90
        2
 70
     0
 43
0.0
 10
6066.793816005578
 20
9993.385548238337
 10
6016.793816005578
 20
10093.38554823834
  0
LWPOLYLINE
  5
7B
330
1F
100
AcDbEntity
  8
0
100
AcDbPolyline
 90
        2
 70
     0
 43
0.0
 10
6216.793816005578
 20
9993.385548238337
 10
6266.793816005578
 20
10093.38554823834
  0
LWPOLYLINE
  5
7C
330
1F
100
AcDbEntity
  8
0
100
AcDbPolyline
 90
        2
 70
     0
 43
0.0
 10
6516.793816005578
 20
9843.385548238337
 10
6616.793816005578
 20
9793.385548238337
  0
LWPOLYLINE
  5
7D
330
1F
100
AcDbEntity
  8
0
100
AcDbPolyline
 90
        2
 70
     0
 43
0.0
 10
6516.793816005578
 20
9993.385548238337
 10
6616.793816005578
 20
10043.38554823834
  0
LWPOLYLINE
  5
7E
330
1F
100
AcDbEntity
  8
0
100
AcDbPolyline
 90
        2
 70
     0
 43
0.0
 10
6616.793816005578
 20
9793.385548238337
 10
7116.793816005578
 20
9793.385548238337
  0
LWPOLYLINE
  5
7F
330
1F
100
AcDbEntity
  8
0
100
AcDbPolyline
 90
        2
 70
     0
 43
0.0
 10
6616.793816005578
 20
10043.38554823834
 10
7116.793816005578
 20
10043.38554823834
  0
LWPOLYLINE
  5
80
330
1F
100
AcDbEntity
  8
0
100
AcDbPolyline
 90
       18
 70
     0
 43
0.0
 10
6424.555859065382
 20
10408.0525639734
 10
6533.811571267666
 20
10509.42705020196
 10
6608.332704355707
 20
10638.50143894814
 10
6641.497728624148
 20
10783.80690433811
 10
6630.359786124667
 20
10932.43241810954
 10
6575.908531925874
 20
11071.17195113136
 10
6482.98219891917
 20
11187.69788704631
 10
6359.837699592346
 20
11271.65638508256
 10
6217.416963121621
 20
11315.58736424397
 10
6068.374696945539
 20
11315.58736424397
 10
5925.953960474813
 20
11271.65638508256
 10
5802.809461148223
 20
11187.69788704631
 10
5709.883128141286
 20
11071.17195113136
 10
5655.431873942725
 20
10932.43241810954
 10
5644.293931443011
 20
10783.80690433811
 10
5677.458955711452
 20
10638.50143894814
 10
5751.980088799493
 20
10509.42705020196
 10
5861.235801001778
 20
10408.0525639734
  0
LWPOLYLINE
  5
81
330
1F
100
AcDbEntity
  8
0
100
AcDbPolyline
 90
       20
 70
     0
 43
0.0
 10
6048.205951434793
 20
10682.28740740933
 10
5918.204095590161
 20
10491.6097056404
 10
5831.046341765439
 20
10572.4802829009
 10
5771.597783502424
 20
10675.4482062492
 10
5745.140686088474
 20
10791.36432382841
 10
5754.025878733722
 20
10909.92897990199
 10
5797.463873079279
 20
11020.60718446555
 10
5871.595012703678
 20
11113.56469334026
 10
5969.832420531893
 20
11180.54182392538
 10
6083.447271770565
 20
11215.58736424397
 10
6202.344388296595
 20
11215.58736424397
 10
6315.959239535267
 20
11180.54182392538
 10
6414.196647363482
 20
11113.56469334026
 10
6488.32778698788
 20
11020.60718446555
 10
6531.76578133367
 20
10909.92897990199
 10
6540.650973978685
 20
10791.36432382841
 10
6514.193876564736
 20
10675.4482062492
 10
6454.745318301721
 20
10572.4802829009
 10
6367.587564477231
 20
10491.6097056404
 10
6237.585708632367
 20
10682.28740740933
  0
LWPOLYLINE
  5
83
330
1F
100
AcDbEntity
  8
0
100
AcDbPolyline
 90
       14
 70
     0
 43
0.0
 10
6237.677055905107
 20
10891.16511222236
 10
6238.110710042762
 20
10999.9906767081
 10
6235.983766961144
 20
11028.37275968857
 10
6225.585552173899
 20
11054.86697887738
 10
6207.839992696652
 20
11077.11920663148
 10
6184.323859364027
 20
11093.15223486272
 10
6157.126663821517
 20
11101.5414586531
 10
6128.664996245876
 20
11101.5414586531
 10
6101.467800703365
 20
11093.15223486284
 10
6077.951667370507
 20
11077.11920663148
 10
6060.20610789326
 20
11054.86697887738
 10
6049.807893106015
 20
11028.37275968857
 10
6047.680950024631
 20
10999.9906767081
 10
6048.205951434793
 20
10868.24150181845
  0
LWPOLYLINE
  5
84
330
1F
100
AcDbEntity
  8
0
100
AcDbPolyline
 90
        2
 70
     0
 43
0.0
 10
6237.585708632367
 20
10682.28740740933
 10
6237.677055905107
 20
10891.16511222236
  0
LWPOLYLINE
  5
85
330
1F
100
AcDbEntity
  8
0
100
AcDbPolyline
 90
        2
 70
     0
 43
0.0
 10
6048.205951434793
 20
10682.28740740933
 10
6048.205951434793
 20
10868.24150181845
  0
LWPOLYLINE
  5
86
330
1F
100
AcDbEntity
  8
0
100
AcDbPolyline
 90
        2
 70
     0
 43
0.0
 10
6424.555859065382
 20
10408.0525639734
 10
6391.793816005578
 20
10343.38554823834
  0
LWPOLYLINE
  5
87
330
1F
100
AcDbEntity
  8
0
100
AcDbPolyline
 90
        2
 70
     0
 43
0.0
 10
5861.235801001778
 20
10408.0525639734
 10
5891.793816005578
 20
10343.38554823834
  0
LWPOLYLINE
  5
88
330
1F
100
AcDbEntity
  8
0
100
AcDbPolyline
 90
        2
 70
     0
 43
0.0
 10
6391.793816005578
 20
10343.38554823834
 10
6266.793816005578
 20
10093.38554823834
  0
LWPOLYLINE
  5
89
330
1F
100
AcDbEntity
  8
0
100
AcDbPolyline
 90
        2
 70
     0
 43
0.0
 10
5891.793816005578
 20
10343.38554823834
 10
6016.793816005578
 20
10093.38554823834
  0
LWPOLYLINE
  5
8A
330
1F
100
AcDbEntity
  8
0
100
AcDbPolyline
 90
        2
 70
     0
 43
0.0
 10
5766.793816005578
 20
9993.385548238337
 10
5666.793816005578
 20
10043.38554823834
  0
LWPOLYLINE
  5
8B
330
1F
100
AcDbEntity
  8
0
100
AcDbPolyline
 90
        2
 70
     0
 43
0.0
 10
5766.793816005578
 20
9843.385548238337
 10
5666.793816005578
 20
9793.385548238337
  0
LWPOLYLINE
  5
8C
330
1F
100
AcDbEntity
  8
0
100
AcDbPolyline
 90
        2
 70
     0
 43
0.0
 10
5666.793816005578
 20
10043.38554823834
 10
5166.793816005578
 20
10043.38554823834
  0
LWPOLYLINE
  5
8D
330
1F
100
AcDbEntity
  8
0
100
AcDbPolyline
 90
        2
 70
     0
 43
0.0
 10
5666.793816005578
 20
9793.385548238337
 10
5166.793816005578
 20
9793.385548238337
  0
LWPOLYLINE
  5
8E
330
1F
100
AcDbEntity
  8
0
100
AcDbPolyline
 90
        2
 70
     0
 43
0.0
 10
6216.793816005578
 20
9843.385548238337
 10
6516.793816005578
 20
9843.385548238337
  0
LWPOLYLINE
  5
8F
330
1F
100
AcDbEntity
  8
0
100
AcDbPolyline
 90
        2
 70
     0
 43
0.0
 10
6216.793816005578
 20
9993.385548238337
 10
6516.793816005578
 20
9993.385548238337
  0
LWPOLYLINE
  5
90
330
1F
100
AcDbEntity
  8
0
100
AcDbPolyline
 90
        2
 70
     0
 43
0.0
 10
6066.793816005578
 20
9993.385548238337
 10
5766.793816005578
 20
9993.385548238337
  0
LWPOLYLINE
  5
91
330
1F
100
AcDbEntity
  8
0
100
AcDbPolyline
 90
        2
 70
     0
 43
0.0
 10
6066.793816005578
 20
9843.385548238337
 10
5766.793816005578
 20
9843.385548238337
  0
LWPOLYLINE
  5
92
330
1F
100
AcDbEntity
  8
0
100
AcDbPolyline
 90
        2
 70
     0
 43
0.0
 10
6066.793816005578
 20
6543.385548238337
 10
6016.793816005578
 20
6643.385548238337
  0
LWPOLYLINE
  5
93
330
1F
100
AcDbEntity
  8
0
100
AcDbPolyline
 90
        2
 70
     0
 43
0.0
 10
6216.793816005578
 20
6543.385548238337
 10
6266.793816005578
 20
6643.385548238337
  0
LWPOLYLINE
  5
94
330
1F
100
AcDbEntity
  8
0
100
AcDbPolyline
 90
        2
 70
     0
 43
0.0
 10
6216.793816005578
 20
5293.385548238337
 10
6266.793816005578
 20
5193.385548238337
  0
LWPOLYLINE
  5
95
330
1F
100
AcDbEntity
  8
0
100
AcDbPolyline
 90
        2
 70
     0
 43
0.0
 10
6066.793816005578
 20
5293.385548238337
 10
6016.793816005578
 20
5193.385548238337
  0
LWPOLYLINE
  5
96
330
1F
100
AcDbEntity
  8
0
100
AcDbPolyline
 90
        2
 70
     0
 43
0.0
 10
6516.793816005578
 20
6093.385548238337
 10
6616.793816005578
 20
6043.385548238337
  0
LWPOLYLINE
  5
97
330
1F
100
AcDbEntity
  8
0
100
AcDbPolyline
 90
        2
 70
     0
 43
0.0
 10
6516.793816005578
 20
6243.385548238337
 10
6616.793816005578
 20
6293.385548238337
  0
LWPOLYLINE
  5
98
330
1F
100
AcDbEntity
  8
0
100
AcDbPolyline
 90
        2
 70
     0
 43
0.0
 10
6016.793816005578
 20
4193.385548238337
 10
6016.793816005578
 20
3693.385548238337
  0
LWPOLYLINE
  5
99
330
1F
100
AcDbEntity
  8
0
100
AcDbPolyline
 90
        2
 70
     0
 43
0.0
 10
6266.793816005578
 20
4193.385548238337
 10
6266.793816005578
 20
3693.385548238337
  0
LWPOLYLINE
  5
9A
330
1F
100
AcDbEntity
  8
0
100
AcDbPolyline
 90
        2
 70
     0
 43
0.0
 10
6616.793816005578
 20
6043.385548238337
 10
7116.793816005578
 20
6043.385548238337
  0
LWPOLYLINE
  5
9B
330
1F
100
AcDbEntity
  8
0
100
AcDbPolyline
 90
        2
 70
     0
 43
0.0
 10
6616.793816005578
 20
6293.385548238337
 10
7116.793816005578
 20
6293.385548238337
  0
LWPOLYLINE
  5
9C
330
1F
100
AcDbEntity
  8
0
100
AcDbPolyline
 90
       18
 70
     0
 43
0.0
 10
5859.031772945775
 20
2378.718532503161
 10
5749.77606074349
 20
2277.344046274593
 10
5675.254927655449
 20
2148.269657528421
 10
5642.089903387008
 20
2002.964192138446
 10
5653.227845886489
 20
1854.338678367014
 10
5707.679100085283
 20
1715.599145345201
 10
5800.60543309222
 20
1599.073209430251
 10
5923.74993241881
 20
1515.114711393995
 10
6066.170668889536
 20
1471.183732232588
 10
6215.212935065618
 20
1471.183732232588
 10
6357.633671536343
 20
1515.114711393995
 10
6480.778170862934
 20
1599.073209430251
 10
6573.704503869871
 20
1715.599145345201
 10
6628.155758068431
 20
1854.338678367014
 10
6639.293700568145
 20
2002.964192138446
 10
6606.128676299704
 20
2148.269657528421
 10
6531.607543211663
 20
2277.344046274593
 10
6422.351831009379
 20
2378.718532503161
  0
LWPOLYLINE
  5
9D
330
1F
100
AcDbEntity
  8
0
100
AcDbPolyline
 90
       20
 70
     0
 43
0.0
 10
6235.381680576364
 20
2104.48368906723
 10
6365.383536420995
 20
2295.161390836161
 10
6452.541290245717
 20
2214.290813575659
 10
6511.989848508732
 20
2111.322890227355
 10
6538.446945922682
 20
1995.406772648261
 10
6529.561753277667
 20
1876.842116574568
 10
6486.123758931877
 20
1766.163912011005
 10
6411.992619307479
 20
1673.206403136297
 10
6313.755211479263
 20
1606.22927255118
 10
6200.140360240592
 20
1571.183732232588
 10
6081.243243714562
 20
1571.183732232588
 10
5967.62839247589
 20
1606.22927255118
 10
5869.390984647674
 20
1673.206403136297
 10
5795.259845023276
 20
1766.163912011005
 10
5751.821850677487
 20
1876.842116574568
 10
5742.936658032471
 20
1995.406772648261
 10
5769.393755446421
 20
2111.322890227355
 10
5828.842313709436
 20
2214.290813575659
 10
5916.000067534158
 20
2295.161390836161
 10
6046.00192337879
 20
2104.48368906723
  0
LWPOLYLINE
  5
9E
330
1F
100
AcDbEntity
  8
0
100
AcDbPolyline
 90
       14
 70
     0
 43
0.0
 10
6045.910576106282
 20
1895.605984254202
 10
6045.476921968395
 20
1786.78041976846
 10
6047.603865050012
 20
1758.398336787985
 10
6058.002079837257
 20
1731.904117599173
 10
6075.747639314504
 20
1709.651889845074
 10
6099.263772647129
 20
1693.618861613839
 10
6126.46096818964
 20
1685.229637823577
 10
6154.922635765513
 20
1685.229637823577
 10
6182.119831308024
 20
1693.618861613839
 10
6205.635964640649
 20
1709.651889845074
 10
6223.381524117896
 20
1731.904117599173
 10
6233.779738905141
 20
1758.398336787985
 10
6235.906681986758
 20
1786.78041976846
 10
6235.381680576364
 20
1918.529594658103
  0
LWPOLYLINE
  5
9F
330
1F
100
AcDbEntity
  8
0
100
AcDbPolyline
 90
        2
 70
     0
 43
0.0
 10
6046.00192337879
 20
2104.48368906723
 10
6045.910576106282
 20
1895.605984254202
  0
LWPOLYLINE
  5
A0
330
1F
100
AcDbEntity
  8
0
100
AcDbPolyline
 90
        2
 70
     0
 43
0.0
 10
6235.381680576364
 20
2104.48368906723
 10
6235.381680576364
 20
1918.529594658103
  0
LWPOLYLINE
  5
A1
330
1F
100
AcDbEntity
  8
0
100
AcDbPolyline
 90
        2
 70
     0
 43
0.0
 10
5859.031772945775
 20
2378.718532503161
 10
5891.793816005578
 20
2443.385548238337
  0
LWPOLYLINE
  5
A2
330
1F
100
AcDbEntity
  8
0
100
AcDbPolyline
 90
        2
 70
     0
 43
0.0
 10
6422.351831009379
 20
2378.718532503161
 10
6391.793816005578
 20
2443.385548238337
  0
LWPOLYLINE
  5
A3
330
1F
100
AcDbEntity
  8
0
100
AcDbPolyline
 90
        2
 70
     0
 43
0.0
 10
5891.793816005578
 20
3443.385548238337
 10
5891.793816005578
 20
2443.385548238337
  0
LWPOLYLINE
  5
A4
330
1F
100
AcDbEntity
  8
0
100
AcDbPolyline
 90
        2
 70
     0
 43
0.0
 10
6391.793816005578
 20
3443.385548238337
 10
6391.793816005578
 20
2443.385548238337
  0
LWPOLYLINE
  5
A5
330
1F
100
AcDbEntity
  8
0
100
AcDbPolyline
 90
        2
 70
     0
 43
0.0
 10
6391.793816005578
 20
3443.385548238337
 10
6266.793816005578
 20
3693.385548238337
  0
LWPOLYLINE
  5
A6
330
1F
100
AcDbEntity
  8
0
100
AcDbPolyline
 90
        2
 70
     0
 43
0.0
 10
5891.793816005578
 20
3443.385548238337
 10
6016.793816005578
 20
3693.385548238337
  0
LWPOLYLINE
  5
A7
330
1F
100
AcDbEntity
  8
0
100
AcDbPolyline
 90
        2
 70
     0
 43
0.0
 10
5766.793816005578
 20
6243.385548238337
 10
5666.793816005578
 20
6293.385548238337
  0
LWPOLYLINE
  5
A8
330
1F
100
AcDbEntity
  8
0
100
AcDbPolyline
 90
        2
 70
     0
 43
0.0
 10
5766.793816005578
 20
6093.385548238337
 10
5666.793816005578
 20
6043.385548238337
  0
LWPOLYLINE
  5
A9
330
1F
100
AcDbEntity
  8
0
100
AcDbPolyline
 90
        2
 70
     0
 43
0.0
 10
5666.793816005578
 20
6293.385548238337
 10
5166.793816005578
 20
6293.385548238337
  0
LWPOLYLINE
  5
AA
330
1F
100
AcDbEntity
  8
0
100
AcDbPolyline
 90
        2
 70
     0
 43
0.0
 10
5666.793816005578
 20
6043.385548238337
 10
5166.793816005578
 20
6043.385548238337
  0
LWPOLYLINE
  5
AB
330
1F
100
AcDbEntity
  8
0
100
AcDbPolyline
 90
        2
 70
     0
 43
0.0
 10
6191.793816005578
 20
6118.385548238337
 10
6291.793816005578
 20
6118.385548238337
  0
LWPOLYLINE
  5
AC
330
1F
100
AcDbEntity
  8
0
100
AcDbPolyline
 90
        2
 70
     0
 43
0.0
 10
6191.793816005578
 20
6218.385548238337
 10
6291.793816005578
 20
6218.385548238337
  0
LWPOLYLINE
  5
AD
330
1F
100
AcDbEntity
  8
0
100
AcDbPolyline
 90
        2
 70
     0
 43
0.0
 10
6191.793816005578
 20
5618.385548238337
 10
6191.793816005578
 20
5518.385548238337
  0
LWPOLYLINE
  5
AE
330
1F
100
AcDbEntity
  8
0
100
AcDbPolyline
 90
        2
 70
     0
 43
0.0
 10
6091.793816005578
 20
5618.385548238337
 10
6091.793816005578
 20
5518.385548238337
  0
LWPOLYLINE
  5
AF
330
1F
100
AcDbEntity
  8
0
100
AcDbPolyline
 90
        2
 70
     0
 43
0.0
 10
6091.793816005578
 20
6218.385548238337
 10
6091.793816005578
 20
6318.385548238337
  0
LWPOLYLINE
  5
B0
330
1F
100
AcDbEntity
  8
0
100
AcDbPolyline
 90
        2
 70
     0
 43
0.0
 10
6191.793816005578
 20
6218.385548238337
 10
6191.793816005578
 20
6318.385548238337
  0
LWPOLYLINE
  5
B1
330
1F
100
AcDbEntity
  8
0
100
AcDbPolyline
 90
        2
 70
     0
 43
0.0
 10
6091.793816005578
 20
6218.385548238337
 10
5991.793816005578
 20
6218.385548238337
  0
LWPOLYLINE
  5
B2
330
1F
100
AcDbEntity
  8
0
100
AcDbPolyline
 90
        2
 70
     0
 43
0.0
 10
6091.793816005578
 20
6118.385548238337
 10
5991.793816005578
 20
6118.385548238337
  0
LWPOLYLINE
  5
B3
330
1F
100
AcDbEntity
  8
0
100
AcDbPolyline
 90
        5
 70
     0
 43
0.0
 10
11838.99563201121
 20
14874.68257937981
 10
444.591999999946
 20
14874.68257937981
 10
444.591999999946
 20
530.2789473684243
 10
11838.99563201121
 20
530.2789473684243
 10
11838.99563201121
 20
14874.68257937981
  0
LWPOLYLINE
  5
B4
330
1F
100
AcDbEntity
  8
0
100
AcDbPolyline
 90
        4
 70
     1
 43
0.0
 10
12088.99563201121
 20
15124.68257937981
 10
194.591999999946
 20
15124.68257937981
 10
194.591999999946
 20
280.2789473684243
 10
12088.99563201121
 20
280.2789473684243
  0
LWPOLYLINE
  5
B5
330
1F
100
AcDbEntity
  8
0
100
AcDbPolyline
 90
        2
 70
     0
 43
0.0
 10
6266.793816005578
 20
6643.385548238337
 10
6266.793816005578
 20
7143.385548238337
  0
LWPOLYLINE
  5
B6
330
1F
100
AcDbEntity
  8
0
100
AcDbPolyline
 90
        2
 70
     0
 43
0.0
 10
6016.793816005578
 20
6643.385548238337
 10
6016.793816005578
 20
7143.385548238337
  0
LWPOLYLINE
  5
B7
330
1F
100
AcDbEntity
  8
0
100
AcDbPolyline
 90
       18
 70
     0
 43
0.0
 10
6424.555859065382
 20
7458.052563973397
 10
6533.811571267666
 20
7559.427050201964
 10
6608.332704355707
 20
7688.501438948137
 10
6641.497728624148
 20
7833.806904338111
 10
6630.359786124667
 20
7982.432418109544
 10
6575.908531925874
 20
8121.171951131357
 10
6482.98219891917
 20
8237.697887046306
 10
6359.837699592346
 20
8321.656385082562
 10
6217.416963121621
 20
8365.58736424397
 10
6068.374696945539
 20
8365.58736424397
 10
5925.953960474813
 20
8321.656385082562
 10
5802.809461148223
 20
8237.697887046306
 10
5709.883128141286
 20
8121.171951131357
 10
5655.431873942725
 20
7982.432418109544
 10
5644.293931443011
 20
7833.806904338111
 10
5677.458955711452
 20
7688.501438948137
 10
5751.980088799493
 20
7559.427050201964
 10
5861.235801001778
 20
7458.052563973397
  0
LWPOLYLINE
  5
B8
330
1F
100
AcDbEntity
  8
0
100
AcDbPolyline
 90
       20
 70
     0
 43
0.0
 10
6048.205951434793
 20
7732.287407409327
 10
5918.204095590161
 20
7541.609705640396
 10
5831.046341765439
 20
7622.480282900899
 10
5771.597783502424
 20
7725.448206249202
 10
5745.140686088474
 20
7841.364323828413
 10
5754.025878733722
 20
7959.92897990199
 10
5797.463873079279
 20
8070.607184465553
 10
5871.595012703678
 20
8163.56469334026
 10
5969.832420531893
 20
8230.541823925378
 10
6083.447271770565
 20
8265.58736424397
 10
6202.344388296595
 20
8265.58736424397
 10
6315.959239535267
 20
8230.541823925378
 10
6414.196647363482
 20
8163.56469334026
 10
6488.32778698788
 20
8070.607184465553
 10
6531.76578133367
 20
7959.92897990199
 10
6540.650973978685
 20
7841.364323828413
 10
6514.193876564736
 20
7725.448206249202
 10
6454.745318301721
 20
7622.480282900899
 10
6367.587564477231
 20
7541.609705640396
 10
6237.585708632367
 20
7732.287407409327
  0
LWPOLYLINE
  5
B9
330
1F
100
AcDbEntity
  8
0
100
AcDbPolyline
 90
       14
 70
     0
 43
0.0
 10
6237.677055905107
 20
7941.165112222356
 10
6238.110710042762
 20
8049.990676708097
 10
6235.983766961144
 20
8078.372759688573
 10
6225.585552173899
 20
8104.866978877384
 10
6207.839992696652
 20
8127.119206631483
 10
6184.323859364027
 20
8143.152234862719
 10
6157.126663821517
 20
8151.541458653097
 10
6128.664996245876
 20
8151.541458653097
 10
6101.467800703365
 20
8143.152234862835
 10
6077.951667370507
 20
8127.119206631483
 10
6060.20610789326
 20
8104.866978877384
 10
6049.807893106015
 20
8078.372759688573
 10
6047.680950024631
 20
8049.990676708097
 10
6048.205951434793
 20
7918.241501818455
  0
LWPOLYLINE
  5
BA
330
1F
100
AcDbEntity
  8
0
100
AcDbPolyline
 90
        2
 70
     0
 43
0.0
 10
6237.585708632367
 20
7732.287407409327
 10
6237.677055905107
 20
7941.165112222356
  0
LWPOLYLINE
  5
BB
330
1F
100
AcDbEntity
  8
0
100
AcDbPolyline
 90
        2
 70
     0
 43
0.0
 10
6048.205951434793
 20
7732.287407409327
 10
6048.205951434793
 20
7918.241501818455
  0
LWPOLYLINE
  5
BC
330
1F
100
AcDbEntity
  8
0
100
AcDbPolyline
 90
        2
 70
     0
 43
0.0
 10
6424.555859065382
 20
7458.052563973397
 10
6391.793816005578
 20
7393.385548238337
  0
LWPOLYLINE
  5
BD
330
1F
100
AcDbEntity
  8
0
100
AcDbPolyline
 90
        2
 70
     0
 43
0.0
 10
5861.235801001778
 20
7458.052563973397
 10
5891.793816005578
 20
7393.385548238337
  0
LWPOLYLINE
  5
BE
330
1F
100
AcDbEntity
  8
0
100
AcDbPolyline
 90
        2
 70
     0
 43
0.0
 10
6391.793816005578
 20
7393.385548238337
 10
6266.793816005578
 20
7143.385548238337
  0
LWPOLYLINE
  5
BF
330
1F
100
AcDbEntity
  8
0
100
AcDbPolyline
 90
        2
 70
     0
 43
0.0
 10
5891.793816005578
 20
7393.385548238337
 10
6016.793816005578
 20
7143.385548238337
  0
LWPOLYLINE
  5
C0
330
1F
100
AcDbEntity
  8
0
100
AcDbPolyline
 90
        2
 70
     0
 43
0.0
 10
6266.793816005578
 20
5193.385548238337
 10
6266.793816005578
 20
4193.385548238337
  0
LWPOLYLINE
  5
C1
330
1F
100
AcDbEntity
  8
0
100
AcDbPolyline
 90
        2
 70
     0
 43
0.0
 10
6016.793816005578
 20
5193.385548238337
 10
6016.793816005578
 20
4193.385548238337
  0
LWPOLYLINE
  5
C2
330
1F
100
AcDbEntity
  8
0
100
AcDbPolyline
 90
        2
 70
     0
 43
0.0
 10
6216.793816005578
 20
9843.385548238337
 10
6066.793816005578
 20
9843.385548238337
  0
LWPOLYLINE
  5
C3
330
1F
100
AcDbEntity
  8
0
100
AcDbPolyline
 90
        5
 70
     0
 43
0.0
 10
7116.793816005578
 20
6043.385548238337
 10
8013.24042541231
 20
6043.385548238337
 10
8220.347206598846
 20
6043.385548238337
 10
8366.793816005578
 20
6189.832157645069
 10
8366.793816005578
 20
6396.938938831605
  0
LWPOLYLINE
  5
C4
330
1F
100
AcDbEntity
  8
0
100
AcDbPolyline
 90
        4
 70
     0
 43
0.0
 10
7116.793816005578
 20
6293.385548238337
 10
8013.24042541231
 20
6293.385548238337
 10
8116.793816005578
 20
6293.385548238337
 10
8116.793816005578
 20
6396.938938831605
  0
LWPOLYLINE
  5
C5
330
1F
100
AcDbEntity
  8
0
100
AcDbPolyline
 90
        5
 70
     0
 43
0.0
 10
7116.793816005578
 20
10043.38554823834
 10
8013.24042541231
 20
10043.38554823834
 10
8220.347206598846
 20
10043.38554823834
 10
8366.793816005578
 20
9896.938938831605
 10
8366.793816005578
 20
9689.832157645069
  0
LWPOLYLINE
  5
C6
330
1F
100
AcDbEntity
  8
0
100
AcDbPolyline
 90
        4
 70
     0
 43
0.0
 10
7116.793816005578
 20
9793.385548238337
 10
8013.24042541231
 20
9793.385548238337
 10
8116.793816005578
 20
9793.385548238337
 10
8116.793816005578
 20
9689.832157645069
  0
LWPOLYLINE
  5
C7
330
1F
100
AcDbEntity
  8
0
100
AcDbPolyline
 90
        2
 70
     0
 43
0.0
 10
8366.793816005578
 20
9689.832157645069
 10
8366.793816005578
 20
6396.938938831605
  0
LWPOLYLINE
  5
C8
330
1F
100
AcDbEntity
  8
0
100
AcDbPolyline
 90
        2
 70
     0
 43
0.0
 10
8116.793816005578
 20
9689.832157645069
 10
8116.793816005578
 20
6396.938938831605
  0
LWPOLYLINE
  5
C9
330
1F
100
AcDbEntity
  8
0
100
AcDbPolyline
 90
        5
 70
     0
 43
0.0
 10
5166.793816005578
 20
6043.385548238337
 10
4270.347206598846
 20
6043.385548238337
 10
4063.24042541231
 20
6043.385548238337
 10
3916.793816005578
 20
6189.832157645069
 10
3916.793816005578
 20
6396.938938831605
  0
LWPOLYLINE
  5
CA
330
1F
100
AcDbEntity
  8
0
100
AcDbPolyline
 90
        4
 70
     0
 43
0.0
 10
5166.793816005578
 20
6293.385548238337
 10
4270.347206598846
 20
6293.385548238337
 10
4166.793816005578
 20
6293.385548238337
 10
4166.793816005578
 20
6396.938938831605
  0
LWPOLYLINE
  5
CB
330
1F
100
AcDbEntity
  8
0
100
AcDbPolyline
 90
        5
 70
     0
 43
0.0
 10
5166.793816005578
 20
10043.38554823834
 10
4270.347206598846
 20
10043.38554823834
 10
4063.24042541231
 20
10043.38554823834
 10
3916.793816005578
 20
9896.938938831605
 10
3916.793816005578
 20
9689.832157645069
  0
LWPOLYLINE
  5
CC
330
1F
100
AcDbEntity
  8
0
100
AcDbPolyline
 90
        4
 70
     0
 43
0.0
 10
5166.793816005578
 20
9793.385548238337
 10
4270.347206598846
 20
9793.385548238337
 10
4166.793816005578
 20
9793.385548238337
 10
4166.793816005578
 20
9689.832157645069
  0
LWPOLYLINE
  5
CD
330
1F
100
AcDbEntity
  8
0
100
AcDbPolyline
 90
        2
 70
     0
 43
0.0
 10
3916.793816005578
 20
9689.832157645069
 10
3916.793816005578
 20
6396.938938831605
  0
LWPOLYLINE
  5
CE
330
1F
100
AcDbEntity
  8
0
100
AcDbPolyline
 90
        2
 70
     0
 43
0.0
 10
4166.793816005578
 20
9689.832157645069
 10
4166.793816005578
 20
6396.938938831605
  0
TEXT
  5
CF
330
1F
100
AcDbEntity
  8
0
100
AcDbText
 10
7407.498145509278
 20
1030.278947368424
 30
0.0
 40
734.2803532077291
  1
100µm1X
100
AcDbText
  0
LWPOLYLINE
  5
D1
330
1F
100
AcDbEntity
  8
0
100
AcDbPolyline
 90
        3
 70
     0
 43
0.0
 10
5991.793816005578
 20
6218.385548238337
 10
5941.793816005578
 20
6243.385548238337
 10
5766.793816005578
 20
6243.385548238337
  0
LWPOLYLINE
  5
D2
330
1F
100
AcDbEntity
  8
0
100
AcDbPolyline
 90
        3
 70
     0
 43
0.0
 10
5991.793816005578
 20
6118.385548238337
 10
5941.793816005578
 20
6093.385548238337
 10
5766.793816005578
 20
6093.385548238337
  0
LWPOLYLINE
  5
D3
330
1F
100
AcDbEntity
  8
0
100
AcDbPolyline
 90
        3
 70
     0
 43
0.0
 10
6291.793816005578
 20
6118.385548238337
 10
6341.793816005578
 20
6093.385548238337
 10
6516.793816005578
 20
6093.385548238337
  0
LWPOLYLINE
  5
D4
330
1F
100
AcDbEntity
  8
0
100
AcDbPolyline
 90
        3
 70
     0
 43
0.0
 10
6291.793816005578
 20
6218.385548238337
 10
6341.793816005578
 20
6243.385548238337
 10
6516.793816005578
 20
6243.385548238337
  0
LWPOLYLINE
  5
D5
330
1F
100
AcDbEntity
  8
0
100
AcDbPolyline
 90
        3
 70
     0
 43
0.0
 10
6091.793816005578
 20
6318.385548238337
 10
6066.793816005578
 20
6368.385548238337
 10
6066.793816005578
 20
6543.385548238337
  0
LWPOLYLINE
  5
D6
330
1F
100
AcDbEntity
  8
0
100
AcDbPolyline
 90
        3
 70
     0
 43
0.0
 10
6191.793816005578
 20
6318.385548238337
 10
6216.793816005578
 20
6368.385548238337
 10
6216.793816005578
 20
6543.385548238337
  0
LWPOLYLINE
  5
D7
330
1F
100
AcDbEntity
  8
0
100
AcDbPolyline
 90
        3
 70
     0
 43
0.0
 10
6091.793816005578
 20
5518.385548238337
 10
6066.793816005578
 20
5468.385548238337
 10
6066.793816005578
 20
5293.385548238337
  0
LWPOLYLINE
  5
D8
330
1F
100
AcDbEntity
  8
0
100
AcDbPolyline
 90
        3
 70
     0
 43
0.0
 10
6191.793816005578
 20
5518.385548238337
 10
6216.793816005578
 20
5468.385548238337
 10
6216.793816005578
 20
5293.385548238337
  0
LWPOLYLINE
  5
D9
330
1F
100
AcDbEntity
  8
0
100
AcDbPolyline
 90
        2
 70
     0
 43
0.0
 10
6516.793816005578
 20
5593.385548238337
 10
6616.793816005578
 20
5543.385548238337
  0
LWPOLYLINE
  5
DA
330
1F
100
AcDbEntity
  8
0
100
AcDbPolyline
 90
        2
 70
     0
 43
0.0
 10
6516.793816005578
 20
5743.385548238337
 10
6616.793816005578
 20
5793.385548238337
  0
LWPOLYLINE
  5
DB
330
1F
100
AcDbEntity
  8
0
100
AcDbPolyline
 90
        2
 70
     0
 43
0.0
 10
6616.793816005578
 20
5543.385548238337
 10
7616.793816005578
 20
5543.385548238337
  0
LWPOLYLINE
  5
DC
330
1F
100
AcDbEntity
  8
0
100
AcDbPolyline
 90
        2
 70
     0
 43
0.0
 10
6616.793816005578
 20
5793.385548238337
 10
7616.793816005578
 20
5793.385548238337
  0
LWPOLYLINE
  5
DD
330
1F
100
AcDbEntity
  8
0
100
AcDbPolyline
 90
        2
 70
     0
 43
0.0
 10
5766.793816005578
 20
5743.385548238337
 10
5666.793816005578
 20
5793.385548238337
  0
LWPOLYLINE
  5
DE
330
1F
100
AcDbEntity
  8
0
100
AcDbPolyline
 90
        2
 70
     0
 43
0.0
 10
5766.793816005578
 20
5593.385548238337
 10
5666.793816005578
 20
5543.385548238337
  0
LWPOLYLINE
  5
DF
330
1F
100
AcDbEntity
  8
0
100
AcDbPolyline
 90
        2
 70
     0
 43
0.0
 10
5666.793816005578
 20
5793.385548238337
 10
4666.793816005578
 20
5793.385548238337
  0
LWPOLYLINE
  5
E0
330
1F
100
AcDbEntity
  8
0
100
AcDbPolyline
 90
        2
 70
     0
 43
0.0
 10
5666.793816005578
 20
5543.385548238337
 10
4666.793816005578
 20
5543.385548238337
  0
LWPOLYLINE
  5
E1
330
1F
100
AcDbEntity
  8
0
100
AcDbPolyline
 90
        2
 70
     0
 43
0.0
 10
6191.793816005578
 20
5618.385548238337
 10
6291.793816005578
 20
5618.385548238337
  0
LWPOLYLINE
  5
E2
330
1F
100
AcDbEntity
  8
0
100
AcDbPolyline
 90
        2
 70
     0
 43
0.0
 10
6191.793816005578
 20
5718.385548238337
 10
6291.793816005578
 20
5718.385548238337
  0
LWPOLYLINE
  5
E3
330
1F
100
AcDbEntity
  8
0
100
AcDbPolyline
 90
        2
 70
     0
 43
0.0
 10
6091.793816005578
 20
5718.385548238337
 10
5991.793816005578
 20
5718.385548238337
  0
LWPOLYLINE
  5
E4
330
1F
100
AcDbEntity
  8
0
100
AcDbPolyline
 90
        2
 70
     0
 43
0.0
 10
6091.793816005578
 20
5618.385548238337
 10
5991.793816005578
 20
5618.385548238337
  0
LWPOLYLINE
  5
E5
330
1F
100
AcDbEntity
  8
0
100
AcDbPolyline
 90
        3
 70
     0
 43
0.0
 10
5991.793816005578
 20
5718.385548238337
 10
5941.793816005578
 20
5743.385548238337
 10
5766.793816005578
 20
5743.385548238337
  0
LWPOLYLINE
  5
E6
330
1F
100
AcDbEntity
  8
0
100
AcDbPolyline
 90
        3
 70
     0
 43
0.0
 10
5991.793816005578
 20
5618.385548238337
 10
5941.793816005578
 20
5593.385548238337
 10
5766.793816005578
 20
5593.385548238337
  0
LWPOLYLINE
  5
E7
330
1F
100
AcDbEntity
  8
0
100
AcDbPolyline
 90
        3
 70
     0
 43
0.0
 10
6291.793816005578
 20
5618.385548238337
 10
6341.793816005578
 20
5593.385548238337
 10
6516.793816005578
 20
5593.385548238337
  0
LWPOLYLINE
  5
E8
330
1F
100
AcDbEntity
  8
0
100
AcDbPolyline
 90
        3
 70
     0
 43
0.0
 10
6291.793816005578
 20
5718.385548238337
 10
6341.793816005578
 20
5743.385548238337
 10
6516.793816005578
 20
5743.385548238337
  0
LWPOLYLINE
  5
E9
330
1F
100
AcDbEntity
  8
0
 62
     4
100
AcDbPolyline
 90
        2
 70
     0
 43
0.0
 10
6191.793816005578
 20
6118.385548238337
 10
6191.793816005578
 20
5718.385548238337
  0
LWPOLYLINE
  5
EA
330
1F
100
AcDbEntity
  8
0
 62
     4
100
AcDbPolyline
 90
        2
 70
     0
 43
0.0
 10
6091.793816005578
 20
6118.385548238337
 10
6091.793816005578
 20
5718.385548238337
  0
LWPOLYLINE
  5
EB
330
1F
100
AcDbEntity
  8
0
100
AcDbPolyline
 90
        5
 70
     0
 43
0.0
 10
4666.793816005578
 20
5543.385548238337
 10
3770.347206598846
 20
5543.385548238337
 10
3563.24042541231
 20
5543.385548238337
 10
3416.793816005578
 20
5689.832157645069
 10
3416.793816005578
 20
5896.938938831605
  0
LWPOLYLINE
  5
EC
330
1F
100
AcDbEntity
  8
0
100
AcDbPolyline
 90
        4
 70
     0
 43
0.0
 10
4666.793816005578
 20
5793.385548238337
 10
3770.347206598846
 20
5793.385548238337
 10
3666.793816005578
 20
5793.385548238337
 10
3666.793816005578
 20
5896.938938831605
  0
LWPOLYLINE
  5
ED
330
1F
100
AcDbEntity
  8
0
100
AcDbPolyline
 90
        5
 70
     0
 43
0.0
 10
5166.793816005578
 20
12396.8910033779
 10
3770.347206598963
 20
12396.8910033779
 10
3563.240425412427
 20
12396.8910033779
 10
3416.793816005695
 20
12250.44439397116
 10
3416.793816005695
 20
12043.33761278463
  0
LWPOLYLINE
  5
EE
330
1F
100
AcDbEntity
  8
0
100
AcDbPolyline
 90
        4
 70
     0
 43
0.0
 10
5166.793816005578
 20
12146.8910033779
 10
3770.347206598963
 20
12146.8910033779
 10
3666.793816005695
 20
12146.8910033779
 10
3666.793816005695
 20
12043.33761278463
  0
LWPOLYLINE
  5
EF
330
1F
100
AcDbEntity
  8
0
100
AcDbPolyline
 90
        2
 70
     0
 43
0.0
 10
3416.793816005695
 20
12043.33761278463
 10
3416.793816005578
 20
5896.938938831605
  0
LWPOLYLINE
  5
F0
330
1F
100
AcDbEntity
  8
0
100
AcDbPolyline
 90
        2
 70
     0
 43
0.0
 10
3666.793816005695
 20
12043.33761278463
 10
3666.793816005578
 20
5896.938938831605
  0
LWPOLYLINE
  5
F1
330
1F
100
AcDbEntity
  8
0
100
AcDbPolyline
 90
        2
 70
     0
 43
0.0
 10
6066.793816005578
 20
12346.8910033779
 10
6016.793816005578
 20
12446.8910033779
  0
LWPOLYLINE
  5
F2
330
1F
100
AcDbEntity
  8
0
100
AcDbPolyline
 90
        2
 70
     0
 43
0.0
 10
6216.793816005578
 20
12346.8910033779
 10
6266.793816005578
 20
12446.8910033779
  0
LWPOLYLINE
  5
F3
330
1F
100
AcDbEntity
  8
0
100
AcDbPolyline
 90
        2
 70
     0
 43
0.0
 10
6516.793816005578
 20
12196.8910033779
 10
6616.793816005578
 20
12146.8910033779
  0
LWPOLYLINE
  5
F4
330
1F
100
AcDbEntity
  8
0
100
AcDbPolyline
 90
        2
 70
     0
 43
0.0
 10
6516.793816005578
 20
12346.8910033779
 10
6616.793816005578
 20
12396.8910033779
  0
LWPOLYLINE
  5
F5
330
1F
100
AcDbEntity
  8
0
100
AcDbPolyline
 90
        2
 70
     0
 43
0.0
 10
6616.793816005578
 20
12146.8910033779
 10
7116.793816005578
 20
12146.8910033779
  0
LWPOLYLINE
  5
F6
330
1F
100
AcDbEntity
  8
0
100
AcDbPolyline
 90
        2
 70
     0
 43
0.0
 10
6616.793816005578
 20
12396.8910033779
 10
7116.793816005578
 20
12396.8910033779
  0
LWPOLYLINE
  5
F7
330
1F
100
AcDbEntity
  8
0
100
AcDbPolyline
 90
       18
 70
     0
 43
0.0
 10
6424.555859065382
 20
12761.55801911296
 10
6533.811571267666
 20
12862.93250534152
 10
6608.332704355707
 20
12992.0068940877
 10
6641.497728624148
 20
13137.31235947767
 10
6630.359786124667
 20
13285.9378732491
 10
6575.908531925874
 20
13424.67740627092
 10
6482.98219891917
 20
13541.20334218587
 10
6359.837699592346
 20
13625.16184022212
 10
6217.416963121621
 20
13669.09281938353
 10
6068.374696945539
 20
13669.09281938353
 10
5925.953960474813
 20
13625.16184022212
 10
5802.809461148223
 20
13541.20334218587
 10
5709.883128141286
 20
13424.67740627092
 10
5655.431873942725
 20
13285.9378732491
 10
5644.293931443011
 20
13137.31235947767
 10
5677.458955711452
 20
12992.0068940877
 10
5751.980088799493
 20
12862.93250534152
 10
5861.235801001778
 20
12761.55801911296
  0
LWPOLYLINE
  5
F8
330
1F
100
AcDbEntity
  8
0
100
AcDbPolyline
 90
       20
 70
     0
 43
0.0
 10
6048.205951434793
 20
13035.79286254889
 10
5918.204095590161
 20
12845.11516077995
 10
5831.046341765439
 20
12925.98573804046
 10
5771.597783502424
 20
13028.95366138876
 10
5745.140686088474
 20
13144.86977896797
 10
5754.025878733722
 20
13263.43443504155
 10
5797.463873079279
 20
13374.11263960511
 10
5871.595012703678
 20
13467.07014847982
 10
5969.832420531893
 20
13534.04727906494
 10
6083.447271770565
 20
13569.09281938353
 10
6202.344388296595
 20
13569.09281938353
 10
6315.959239535267
 20
13534.04727906494
 10
6414.196647363482
 20
13467.07014847982
 10
6488.32778698788
 20
13374.11263960511
 10
6531.76578133367
 20
13263.43443504155
 10
6540.650973978685
 20
13144.86977896797
 10
6514.193876564736
 20
13028.95366138876
 10
6454.745318301721
 20
12925.98573804046
 10
6367.587564477231
 20
12845.11516077995
 10
6237.585708632367
 20
13035.79286254889
  0
LWPOLYLINE
  5
F9
330
1F
100
AcDbEntity
  8
0
100
AcDbPolyline
 90
       14
 70
     0
 43
0.0
 10
6237.677055905107
 20
13244.67056736191
 10
6238.110710042762
 20
13353.49613184766
 10
6235.983766961144
 20
13381.87821482813
 10
6225.585552173899
 20
13408.37243401694
 10
6207.839992696652
 20
13430.62466177104
 10
6184.323859364027
 20
13446.65769000228
 10
6157.126663821517
 20
13455.04691379266
 10
6128.664996245876
 20
13455.04691379266
 10
6101.467800703365
 20
13446.65769000239
 10
6077.951667370507
 20
13430.62466177104
 10
6060.20610789326
 20
13408.37243401694
 10
6049.807893106015
 20
13381.87821482813
 10
6047.680950024631
 20
13353.49613184766
 10
6048.205951434793
 20
13221.74695695801
  0
LWPOLYLINE
  5
FA
330
1F
100
AcDbEntity
  8
0
100
AcDbPolyline
 90
        2
 70
     0
 43
0.0
 10
6237.585708632367
 20
13035.79286254889
 10
6237.677055905107
 20
13244.67056736191
  0
LWPOLYLINE
  5
FB
330
1F
100
AcDbEntity
  8
0
100
AcDbPolyline
 90
        2
 70
     0
 43
0.0
 10
6048.205951434793
 20
13035.79286254889
 10
6048.205951434793
 20
13221.74695695801
  0
LWPOLYLINE
  5
FC
330
1F
100
AcDbEntity
  8
0
100
AcDbPolyline
 90
        2
 70
     0
 43
0.0
 10
6424.555859065382
 20
12761.55801911296
 10
6391.793816005578
 20
12696.8910033779
  0
LWPOLYLINE
  5
FD
330
1F
100
AcDbEntity
  8
0
100
AcDbPolyline
 90
        2
 70
     0
 43
0.0
 10
5861.235801001778
 20
12761.55801911296
 10
5891.793816005578
 20
12696.8910033779
  0
LWPOLYLINE
  5
FE
330
1F
100
AcDbEntity
  8
0
100
AcDbPolyline
 90
        2
 70
     0
 43
0.0
 10
6391.793816005578
 20
12696.8910033779
 10
6266.793816005578
 20
12446.8910033779
  0
LWPOLYLINE
  5
FF
330
1F
100
AcDbEntity
  8
0
100
AcDbPolyline
 90
        2
 70
     0
 43
0.0
 10
5891.793816005578
 20
12696.8910033779
 10
6016.793816005578
 20
12446.8910033779
  0
LWPOLYLINE
  5
100
330
1F
100
AcDbEntity
  8
0
100
AcDbPolyline
 90
        2
 70
     0
 43
0.0
 10
5766.793816005578
 20
12346.8910033779
 10
5666.793816005578
 20
12396.8910033779
  0
LWPOLYLINE
  5
101
330
1F
100
AcDbEntity
  8
0
100
AcDbPolyline
 90
        2
 70
     0
 43
0.0
 10
5766.793816005578
 20
12196.8910033779
 10
5666.793816005578
 20
12146.8910033779
  0
LWPOLYLINE
  5
102
330
1F
100
AcDbEntity
  8
0
100
AcDbPolyline
 90
        2
 70
     0
 43
0.0
 10
5666.793816005578
 20
12396.8910033779
 10
5166.793816005578
 20
12396.8910033779
  0
LWPOLYLINE
  5
103
330
1F
100
AcDbEntity
  8
0
100
AcDbPolyline
 90
        2
 70
     0
 43
0.0
 10
5666.793816005578
 20
12146.8910033779
 10
5166.793816005578
 20
12146.8910033779
  0
LWPOLYLINE
  5
104
330
1F
100
AcDbEntity
  8
0
100
AcDbPolyline
 90
        2
 70
     0
 43
0.0
 10
6216.793816005578
 20
12196.8910033779
 10
6516.793816005578
 20
12196.8910033779
  0
LWPOLYLINE
  5
105
330
1F
100
AcDbEntity
  8
0
100
AcDbPolyline
 90
        2
 70
     0
 43
0.0
 10
6216.793816005578
 20
12346.8910033779
 10
6516.793816005578
 20
12346.8910033779
  0
LWPOLYLINE
  5
106
330
1F
100
AcDbEntity
  8
0
100
AcDbPolyline
 90
        2
 70
     0
 43
0.0
 10
6066.793816005578
 20
12346.8910033779
 10
5766.793816005578
 20
12346.8910033779
  0
LWPOLYLINE
  5
107
330
1F
100
AcDbEntity
  8
0
100
AcDbPolyline
 90
        2
 70
     0
 43
0.0
 10
6066.793816005578
 20
12196.8910033779
 10
5766.793816005578
 20
12196.8910033779
  0
LWPOLYLINE
  5
108
330
1F
100
AcDbEntity
  8
0
100
AcDbPolyline
 90
        2
 70
     0
 43
0.0
 10
6216.793816005578
 20
12196.8910033779
 10
6066.793816005578
 20
12196.8910033779
  0
LWPOLYLINE
  5
109
330
1F
100
AcDbEntity
  8
0
100
AcDbPolyline
 90
        5
 70
     0
 43
0.0
 10
7616.793816005578
 20
5543.385548238337
 10
8513.24042541231
 20
5543.385548238337
 10
8720.347206598846
 20
5543.385548238337
 10
8866.793816005578
 20
5689.832157645069
 10
8866.793816005578
 20
5896.938938831605
  0
LWPOLYLINE
  5
10A
330
1F
100
AcDbEntity
  8
0
100
AcDbPolyline
 90
        4
 70
     0
 43
0.0
 10
7616.793816005578
 20
5793.385548238337
 10
8513.24042541231
 20
5793.385548238337
 10
8616.793816005578
 20
5793.385548238337
 10
8616.793816005578
 20
5896.938938831605
  0
LWPOLYLINE
  5
10B
330
1F
100
AcDbEntity
  8
0
100
AcDbPolyline
 90
        5
 70
     0
 43
0.0
 10
7116.793816005578
 20
12396.8910033779
 10
8513.24042541231
 20
12396.8910033779
 10
8720.347206598846
 20
12396.8910033779
 10
8866.793816005578
 20
12250.44439397116
 10
8866.793816005578
 20
12043.33761278463
  0
LWPOLYLINE
  5
10C
330
1F
100
AcDbEntity
  8
0
100
AcDbPolyline
 90
        4
 70
     0
 43
0.0
 10
7116.793816005578
 20
12146.8910033779
 10
8513.24042541231
 20
12146.8910033779
 10
8616.793816005578
 20
12146.8910033779
 10
8616.793816005578
 20
12043.33761278463
  0
LWPOLYLINE
  5
10D
330
1F
100
AcDbEntity
  8
0
100
AcDbPolyline
 90
        2
 70
     0
 43
0.0
 10
8866.793816005578
 20
12043.33761278463
 10
8866.793816005578
 20
5896.938938831605
  0
LWPOLYLINE
  5
10E
330
1F
100
AcDbEntity
  8
0
100
AcDbPolyline
 90
        2
 70
     0
 43
0.0
 10
8616.793816005578
 20
12043.33761278463
 10
8616.793816005578
 20
5896.938938831605
  0
ENDSEC
  0
SECTION
  2
OBJECTS
  0
DICTIONARY
  5
C
330
0
100
AcDbDictionary
281
     1
  3
ACAD_GROUP
350
D
  3
ACAD_IMAGE_VARS
350
6A
  3
ACAD_LAYOUT
350
1A
  3
ACAD_MLINESTYLE
350
17
  3
ACAD_PLOTSETTINGS
350
19
  3
ACAD_PLOTSTYLENAME
350
E
  3
ACAD_SCALELIST
350
40
  3
AcDbVariableDictionary
350
3D
  3
APPDATA
350
71
  0
DICTIONARY
  5
D
102
{ACAD_REACTORS
330
C
102
}
330
C
100
AcDbDictionary
281
     1
  0
RASTERVARIABLES
  5
6A
102
{ACAD_REACTORS
330
C
102
}
330
C
100
AcDbRasterVariables
 90
        0
 70
     1
 71
     1
 72
     1
  0
DICTIONARY
  5
1A
102
{ACAD_REACTORS
330
C
102
}
330
C
100
AcDbDictionary
281
     1
  3
Model
350
22
  3
Sheet1
350
1E
  3
Sheet2
350
26
  0
DICTIONARY
  5
17
102
{ACAD_REACTORS
330
C
102
}
330
C
100
AcDbDictionary
281
     1
  3
Standard
350
18
  0
DICTIONARY
  5
19
102
{ACAD_REACTORS
330
C
102
}
330
C
100
AcDbDictionary
281
     1
  0
ACDBDICTIONARYWDFLT
  5
E
102
{ACAD_REACTORS
330
C
102
}
330
C
100
AcDbDictionary
281
     1
  3
Normal
350
F
100
AcDbDictionaryWithDefault
340
F
  0
DICTIONARY
  5
40
102
{ACAD_REACTORS
330
C
102
}
330
C
100
AcDbDictionary
281
     1
  3
A0
350
41
  3
A1
350
42
  3
A2
350
43
  3
A3
350
44
  3
A4
350
45
  3
A5
350
46
  3
A6
350
47
  3
A7
350
48
  3
A8
350
49
  3
A9
350
4A
  3
B0
350
4B
  3
B1
350
4C
  3
B2
350
4D
  3
B3
350
4E
  3
B4
350
4F
  3
B5
350
50
  3
B6
350
51
  3
B7
350
52
  3
B8
350
53
  3
B9
350
54
  3
C0
350
55
  3
C1
350
56
  3
C2
350
57
  3
C3
350
58
  3
C4
350
59
  3
C5
350
5A
  3
C6
350
5B
  3
C7
350
5C
  3
C8
350
5D
  3
C9
350
5E
  3
D0
350
5F
  3
D1
350
60
  3
D2
350
61
  0
DICTIONARY
  5
3D
102
{ACAD_REACTORS
330
C
102
}
330
C
100
AcDbDictionary
281
     1
  3
CANNOSCALE
350
128
  0
DICTIONARY
  5
71
102
{ACAD_REACTORS
330
C
102
}
330
C
100
AcDbDictionary
281
     1
  0
LAYOUT
  5
22
102
{ACAD_REACTORS
330
1A
102
}
330
1A
100
AcDbPlotSettings
  1

  2
none_device
  4
ISO_A3_(420.00_x_297.00_MM)
  6

 40
7.5
 41
20.0
 42
7.5
 43
20.0
 44
420.0
 45
297.0
 46
20.78282828282826
 47
0.0
 48
0.0
 49
0.0
140
0.0
141
0.0
142
1.0
143
1.155642023346303
 70
  1204
 72
     1
 73
     0
 74
     1
  7
monochrome.ctb
 75
     0
147
0.8653198653198654
148
-134.1869158878504
149
0.0
100
AcDbLayout
  1
Model
 70
     1
 71
     0
 10
0.0
 20
0.0
 11
420.0
 21
297.0
 12
0.0
 22
0.0
 32
0.0
 14
1.000000000000000E+20
 24
1.000000000000000E+20
 34
1.000000000000000E+20
 15
-1.000000000000000E+20
 25
-1.000000000000000E+20
 35
-1.000000000000000E+20
146
0.0
 13
0.0
 23
0.0
 33
0.0
 16
1.0
 26
0.0
 36
0.0
 17
0.0
 27
1.0
 37
0.0
 76
     0
330
1F
331
29
  0
LAYOUT
  5
1E
102
{ACAD_REACTORS
330
1A
102
}
330
1A
100
AcDbPlotSettings
  1

  2
none_device
  4

  6

 40
0.0
 41
0.0
 42
0.0
 43
0.0
 44
0.0
 45
0.0
 46
0.0
 47
0.0
 48
0.0
 49
0.0
140
0.0
141
0.0
142
1.0
143
1.0
 70
   688
 72
     0
 73
     0
 74
     5
  7

 75
    16
147
1.0
148
0.0
149
0.0
100
AcDbLayout
  1
Sheet1
 70
     1
 71
     1
 10
0.0
 20
0.0
 11
420.0
 21
297.0
 12
0.0
 22
0.0
 32
0.0
 14
1.000000000000000E+20
 24
1.000000000000000E+20
 34
1.000000000000000E+20
 15
-1.000000000000000E+20
 25
-1.000000000000000E+20
 35
-1.000000000000000E+20
146
0.0
 13
0.0
 23
0.0
 33
0.0
 16
1.0
 26
0.0
 36
0.0
 17
0.0
 27
1.0
 37
0.0
 76
     0
330
1B
  0
LAYOUT
  5
26
102
{ACAD_REACTORS
330
1A
102
}
330
1A
100
AcDbPlotSettings
  1

  2
none_device
  4

  6

 40
0.0
 41
0.0
 42
0.0
 43
0.0
 44
0.0
 45
0.0
 46
0.0
 47
0.0
 48
0.0
 49
0.0
140
0.0
141
0.0
142
1.0
143
1.0
 70
   688
 72
     0
 73
     0
 74
     5
  7

 75
    16
147
1.0
148
0.0
149
0.0
100
AcDbLayout
  1
Sheet2
 70
     1
 71
     2
 10
0.0
 20
0.0
 11
0.0
 21
0.0
 12
0.0
 22
0.0
 32
0.0
 14
0.0
 24
0.0
 34
0.0
 15
0.0
 25
0.0
 35
0.0
146
0.0
 13
0.0
 23
0.0
 33
0.0
 16
1.0
 26
0.0
 36
0.0
 17
0.0
 27
1.0
 37
0.0
 76
     0
330
23
  0
MLINESTYLE
  5
18
102
{ACAD_REACTORS
330
17
102
}
330
17
100
AcDbMlineStyle
  2
Standard
 70
     0
  3

 62
   256
 51
90.0
 52
90.0
 71
     2
 49
0.5
 62
   256
  6
BYLAYER
 49
-0.5
 62
   256
  6
BYLAYER
  0
ACDBPLACEHOLDER
  5
F
102
{ACAD_REACTORS
330
E
102
}
330
E
  0
SCALE
  5
41
102
{ACAD_REACTORS
330
40
102
}
330
40
100
AcDbScale
 70
     0
300
1:1
140
1.0
141
1.0
290
     1
  0
SCALE
  5
42
102
{ACAD_REACTORS
330
40
102
}
330
40
100
AcDbScale
 70
     0
300
1:2
140
1.0
141
2.0
290
     0
  0
SCALE
  5
43
102
{ACAD_REACTORS
330
40
102
}
330
40
100
AcDbScale
 70
     0
300
1:4
140
1.0
141
4.0
290
     0
  0
SCALE
  5
44
102
{ACAD_REACTORS
330
40
102
}
330
40
100
AcDbScale
 70
     0
300
1:5
140
1.0
141
5.0
290
     0
  0
SCALE
  5
45
102
{ACAD_REACTORS
330
40
102
}
330
40
100
AcDbScale
 70
     0
300
1:8
140
1.0
141
8.0
290
     0
  0
SCALE
  5
46
102
{ACAD_REACTORS
330
40
102
}
330
40
100
AcDbScale
 70
     0
300
1:10
140
1.0
141
10.0
290
     0
  0
SCALE
  5
47
102
{ACAD_REACTORS
330
40
102
}
330
40
100
AcDbScale
 70
     0
300
1:16
140
1.0
141
16.0
290
     0
  0
SCALE
  5
48
102
{ACAD_REACTORS
330
40
102
}
330
40
100
AcDbScale
 70
     0
300
1:20
140
1.0
141
20.0
290
     0
  0
SCALE
  5
49
102
{ACAD_REACTORS
330
40
102
}
330
40
100
AcDbScale
 70
     0
300
1:30
140
1.0
141
30.0
290
     0
  0
SCALE
  5
4A
102
{ACAD_REACTORS
330
40
102
}
330
40
100
AcDbScale
 70
     0
300
1:40
140
1.0
141
40.0
290
     0
  0
SCALE
  5
4B
102
{ACAD_REACTORS
330
40
102
}
330
40
100
AcDbScale
 70
     0
300
1:50
140
1.0
141
50.0
290
     0
  0
SCALE
  5
4C
102
{ACAD_REACTORS
330
40
102
}
330
40
100
AcDbScale
 70
     0
300
1:100
140
1.0
141
100.0
290
     0
  0
SCALE
  5
4D
102
{ACAD_REACTORS
330
40
102
}
330
40
100
AcDbScale
 70
     0
300
2:1
140
2.0
141
1.0
290
     0
  0
SCALE
  5
4E
102
{ACAD_REACTORS
330
40
102
}
330
40
100
AcDbScale
 70
     0
300
4:1
140
4.0
141
1.0
290
     0
  0
SCALE
  5
4F
102
{ACAD_REACTORS
330
40
102
}
330
40
100
AcDbScale
 70
     0
300
8:1
140
8.0
141
1.0
290
     0
  0
SCALE
  5
50
102
{ACAD_REACTORS
330
40
102
}
330
40
100
AcDbScale
 70
     0
300
10:1
140
10.0
141
1.0
290
     0
  0
SCALE
  5
51
102
{ACAD_REACTORS
330
40
102
}
330
40
100
AcDbScale
 70
     0
300
100:1
140
100.0
141
1.0
290
     0
  0
SCALE
  5
52
102
{ACAD_REACTORS
330
40
102
}
330
40
100
AcDbScale
 70
     0
300
1/128" = 1'-0"
140
0.0078125
141
12.0
290
     0
  0
SCALE
  5
53
102
{ACAD_REACTORS
330
40
102
}
330
40
100
AcDbScale
 70
     0
300
1/64" = 1'-0"
140
0.015625
141
12.0
290
     0
  0
SCALE
  5
54
102
{ACAD_REACTORS
330
40
102
}
330
40
100
AcDbScale
 70
     0
300
1/32" = 1'-0"
140
0.03125
141
12.0
290
     0
  0
SCALE
  5
55
102
{ACAD_REACTORS
330
40
102
}
330
40
100
AcDbScale
 70
     0
300
1/16" = 1'-0"
140
0.0625
141
12.0
290
     0
  0
SCALE
  5
56
102
{ACAD_REACTORS
330
40
102
}
330
40
100
AcDbScale
 70
     0
300
3/32" = 1'-0"
140
0.09375
141
12.0
290
     0
  0
SCALE
  5
57
102
{ACAD_REACTORS
330
40
102
}
330
40
100
AcDbScale
 70
     0
300
1/8" = 1'-0"
140
0.125
141
12.0
290
     0
  0
SCALE
  5
58
102
{ACAD_REACTORS
330
40
102
}
330
40
100
AcDbScale
 70
     0
300
3/16" = 1'-0"
140
0.1875
141
12.0
290
     0
  0
SCALE
  5
59
102
{ACAD_REACTORS
330
40
102
}
330
40
100
AcDbScale
 70
     0
300
1/4" = 1'-0"
140
0.25
141
12.0
290
     0
  0
SCALE
  5
5A
102
{ACAD_REACTORS
330
40
102
}
330
40
100
AcDbScale
 70
     0
300
3/8" = 1'-0"
140
0.375
141
12.0
290
     0
  0
SCALE
  5
5B
102
{ACAD_REACTORS
330
40
102
}
330
40
100
AcDbScale
 70
     0
300
1/2" = 1'-0"
140
0.5
141
12.0
290
     0
  0
SCALE
  5
5C
102
{ACAD_REACTORS
330
40
102
}
330
40
100
AcDbScale
 70
     0
300
3/4" = 1'-0"
140
0.75
141
12.0
290
     0
  0
SCALE
  5
5D
102
{ACAD_REACTORS
330
40
102
}
330
40
100
AcDbScale
 70
     0
300
1" = 1'-0"
140
1.0
141
12.0
290
     0
  0
SCALE
  5
5E
102
{ACAD_REACTORS
330
40
102
}
330
40
100
AcDbScale
 70
     0
300
1-1/2" = 1'-0"
140
1.5
141
12.0
290
     0
  0
SCALE
  5
5F
102
{ACAD_REACTORS
330
40
102
}
330
40
100
AcDbScale
 70
     0
300
3" = 1'-0"
140
3.0
141
12.0
290
     0
  0
SCALE
  5
60
102
{ACAD_REACTORS
330
40
102
}
330
40
100
AcDbScale
 70
     0
300
6" = 1'-0"
140
6.0
141
12.0
290
     0
  0
SCALE
  5
61
102
{ACAD_REACTORS
330
40
102
}
330
40
100
AcDbScale
 70
     0
300
1'-0" = 1'-0"
140
12.0
141
12.0
290
     0
  0
DICTIONARYVAR
  5
128
102
{ACAD_REACTORS
330
3D
102
}
330
3D
100
DictionaryVariables
280
     0
  1
1:1
  0
ENDSEC
  0
EOF
